Song name
# A B C D E F G H I J K L M N O P Q R S T U V W X Y Z

Lost - Life And Death tab

If you've seen the hit series LOST. Then you probably recognize this song.
I hope you enjoy it, good luck


   Intro
E |-------------------------------------------------------------------|
B |--6----------------6----------------6----------------6-------------|
G |--7----------------7----------------7----------------7-------------|
D |--8----------------7----------------8----------------7-------------|
A |-------------------5---------------------------------5-------------|
E |--6---------------------------------6------------------------------|

E |-------------------------------------------------------------------|
B |--7----------------6----------------7----------------6--------4----|
G |--8----------------7----------------8----------------7--------5----|
D |--8----------------7----------------8----------------7--------5----|
A |--6----------------5----------------6----------------5--------3----|
E |-------------------------------------------------------------------|


   Verse
E |------------------------5--------------------------------5---------|
B |--6-----6------6------6---6--------6-----6------6------6---6-------|
G |------7------7---7---------------------7------7---7----------------|
D |----------------------0--------------------------------0-----------|
A |-------------------------------------------------------------------|
E |--6--------------------------------6-------------------------------|

E |-------------------------------------------------------------------|
B |--6-----6------6------6--------6-------6---6------6----------------|
G |------8------8---8------8-7--8-----------8------8---8----7-8-7--5--|
D |-------------------------------------------------------------------|
A |--6-------------------5----------------6-----------------5------3--|
E |-------------------------------------------------------------------|

E |------------------------5--------------------------------5---------|
B |--6-----6------6------6---6--------6-----6------6------6---6-------|
G |------7------7---7---------------------7------7---7----------------|
D |----------------------0--------------------------------0-----------|
A |-------------------------------------------------------------------|
E |--6--------------------------------6-------------------------------|

E |-------------------------------------------------------------------|
B |--8-----8------8------8-----------8----8-----8----8----------------|
G |-----10-----10---10------10--9-10---------10---10---10---9------7--|
D |-------------------------------------------------------------------|
A |--8-------------------7----------------8-----------------7------5--|
E |-------------------------------------------------------------------|

E |------------------------5--------------------------------5---------|
B |--6-----6------6------6---6--------6-----6------6------6---6-------|
G |------7------7---7---------------------7------7---7----------------|
D |----------------------0--------------------------------0-----------|
A |-------------------------------------------------------------------|
E |--6--------------------------------6-------------------------------|


   Ending
E |-------------------------------------------------------------------|
B |--6-----6------6------6--------6-------6---6------6----------------|
G |------8------8---8------8-7--8-----------8------8---8---7---5---3--|
D |--------------------------------------------------------7---5---3--|
A |--6-------------------5----------------6----------------5---3---1--|
E |-------------------------------------------------------------------|





Something like that...
Tap to rate this tab
 
# A B C D E F G H I J K L M N O P Q R S T U V W X Y Z