Song name
# A B C D E F G H I J K L M N O P Q R S T U V W X Y Z

Lostalone - Predators In A Maze tab

----------|:|---------------------|
----------|:|-Predators in a Maze-|
----------|:|---------------------|


	Notes:

	The fade in 'sparkly' sound can be achieved using a digital delay; first, adjust the 
time to the song tempo, then
	set the feedback/repeat amount to max and the level to minimum. Play arpeggios around 
root chord, which is a G#major,
	high up on the neck. Once you've hit a few strings, stop playing and slowly fade the 
level up - you should have
	a very similar effect as the start of the song.

	Tuning - E flat standard - Eb/Ab/Db/Gb/Bb/Eb (or D#/G#/C#/F#/A#/D#)

	Tab legend;

	~ vibrato
	/ slide
	x mute


----------|:|-------|
----------|:|-Intro-|
----------|:|-------|

	     G#

	Eb|:|------------9---------|--|------------9----------|
	Bb|:|-10------10---10------|--|-10------10---10-------|
	Gb|:|----9------------9----|--|----9------------------|
	Db|:|------11-----------11-|--|------11---------12-11-|
	Ab|:|----------------------|--|-----------------------|
	Eb|:|----------------------|x3|-----------------------|

	      Fm

	Eb|:|------------9---------------------9----------|
	Bb|:|---------10---10---------------10---10-------|
	Gb|:|------11---------11---------11---------------|
	Db|:|---11---------------11---11------------12-11-|
	Ab|:|-9---------------------9---------------------|
	Eb|:|---------------------------------------------|

	      C

	Eb|:|-------------10---------9----------------------|
	Bb|:|-----------------------------------12----------|
	Gb|:|----------11----11---11---11----11----11----11-|
	Db|:|-------12---------12---------12----------12----|
	Ab|:|----12-----------------------------------------|
	Eb|:|-10--------------------------------------------|


----------|:|-------|
----------|:|-Verse-|
----------|:|-------|


      	      You are the future, wake me when I reach the date

	Eb|:|------------9---------|--|------------9----------|
	Bb|:|-10------10---10------|--|-10------10---10-------|
	Gb|:|----9------------9----|--|----9------------------|
	Db|:|------11-----------11-|--|------11---------12-11-|
	Ab|:|----------------------|--|-----------------------|
	Eb|:|----------------------|x3|-----------------------|


	      When we are together

	Eb|:|------------9---------------------9----------|
	Bb|:|---------10---10---------------10---10-------|
	Gb|:|------11---------11---------11---------------|
	Db|:|---11---------------11---11------------12-11-|
	Ab|:|-9---------------------9---------------------|
	Eb|:|---------------------------------------------|


	      And I can love you to your face

	Eb|:|-------------10---------9----------------------|
	Bb|:|-----------------------------------12----------|
	Gb|:|----------11----11---11---11----11----11----11-|
	Db|:|-------12---------12---------12----------12----|
	Ab|:|----12-----------------------------------------|
	Eb|:|-10--------------------------------------------|


	      The days are all torture, we are like predators in a maze

	Eb|:|------------9---------|--|------------9----------|
	Bb|:|-10------10---10------|--|-10------10---10-------|
	Gb|:|----9------------9----|--|----9------------------|
	Db|:|------11-----------11-|--|------11---------12-11-|
	Ab|:|----------------------|--|-----------------------|
	Eb|:|----------------------|x3|-----------------------|


	      Looking for us

	Eb|:|------------9---------------------9----------|
	Bb|:|---------10---10---------------10---10-------|
	Gb|:|------11---------11---------11---------------|
	Db|:|---11---------------11---11------------12-11-|
	Ab|:|-9---------------------9---------------------|
	Eb|:|---------------------------------------------|


	      But we seem so far away

	Eb|:|-------------10---------9-------------------------------------------|
	Bb|:|-----------------------------------12----------7--------------------|
	Gb|:|----------11----11---11---11----11----11----11-7--7--7--7-7--7-7-7--|
	Db|:|-------12---------12---------12----------12----9--9--9--9-9--9-9-9--|
	Ab|:|----12-----------------------------------------9--9--9--9-9--9-9-9--|
	Eb|:|-10--------------------------------------------7--7--7--7-7--7-7-7--|


	Eb|:|--------------------------------------|
	Bb|:|-9-9--/10-10-10--/11-11-11--/15-15~---|
	Gb|:|-x-x---x--x--x----x--x--x----x--x-----|
	Db|:|-6-6--/7--7--7---/9--9--9---/12-12~---|
	Ab|:|--------------------------------------|
	Eb|:|--------------------------------------|


	      I am so lonely, I hear voices I obey

	Eb|:|------------9---------|--|------------9----------|
	Bb|:|-10------10---10------|--|-10------10---10-------|
	Gb|:|----9------------9----|--|----9------------------|
	Db|:|------11-----------11-|--|------11---------12-11-|
	Ab|:|----------------------|--|-----------------------|
	Eb|:|----------------------|x3|-----------------------|


	      Voices in my head

	Eb|:|------------9---------------------9----------|
	Bb|:|---------10---10---------------10---10-------|
	Gb|:|------11---------11---------11---------------|
	Db|:|---11---------------11---11------------12-11-|
	Ab|:|-9---------------------9---------------------|
	Eb|:|---------------------------------------------|


	      Takes a billion metaphors to say

	Eb|:|-------------10---------9----------------------|
	Bb|:|-----------------------------------12----------|
	Gb|:|----------11----11---11---11----11----11----11-|
	Db|:|-------12---------12---------12----------12----|
	Ab|:|----12-----------------------------------------|
	Eb|:|-10--------------------------------------------|


	      That you are the starlight, but can't you see that it's

	Eb|:|------------9---------|--|------------9----------|
	Bb|:|-10------10---10------|--|-10------10---10-------|
	Gb|:|----9------------9----|--|----9------------------|
	Db|:|------11-----------11-|--|------11---------12-11-|
	Ab|:|----------------------|--|-----------------------|
	Eb|:|----------------------|x3|-----------------------|


	      Impossible to choose

	Eb|:|------------9---------------------9----------|
	Bb|:|---------10---10---------------10---10-------|
	Gb|:|------11---------11---------11---------------|
	Db|:|---11---------------11---11------------12-11-|
	Ab|:|-9---------------------9---------------------|
	Eb|:|---------------------------------------------|

	      The words

	Eb|:|-------------10---------9----------------------|
	Bb|:|-----------------------------------12----------|
	Gb|:|----------11----11---11---11----11----11----11-|
	Db|:|-------12---------12---------12----------12----|
	Ab|:|----12-----------------------------------------|
	Eb|:|-10--------------------------------------------|


----------|:|--------|
----------|:|-Chorus-|
----------|:|--------|


	      Don't wait up, I will follow you, you

	Eb|:|-0--0-0-0-0-0--0-0-0-0-4--4-4-4-4-2--2-2-2-2-|
	Bb|:|-2--2-2-2-2-2--2-2-2-2-5--5-5-5-5-2--2-2-2-2-|
	Gb|:|-2--2-2-2-2-2--2-2-2-2-6--6-6-6-6-2--2-2-2-2-|
	Db|:|-2--2-2-2-2-2--2-2-2-2-6--6-6-6-6-4--4-4-4-4-|
	Ab|:|-0--0-0-0-0-0--0-0-0-0-4--4-4-4-4-4--4-4-4-4-|
	Eb|:|------------4--4-4-4-4------------2--2-2-2-2-|


	      Glisten, you reason

	Eb|:|------------0--0-0-0-0-4--4-4-4-4-----------|
	Bb|:|-7--7-7-7-7-0--0-0-0-0-5--5-5-5-5-7----9----|
	Gb|:|-7--7-7-7-7-1--1-1-1-1-6--6-6-6-6-7----9----|
	Db|:|-7--7-7-7-7-2--2-2-2-2-6--6-6-6-6-7----9----|
	Ab|:|-5--5-5-5-5-2--2-2-2-2-4--4-4-4-4-5----7----|
	Eb|:|------------0--0-0-0-0----------------------|


	      If you allow, I will follow you,

	Eb|:|-0--0-0-0-0-0--0-0-0-0-4--4-4-4-4-2--2-2-2-2-|
	Bb|:|-2--2-2-2-2-2--2-2-2-2-5--5-5-5-5-2--2-2-2-2-|
	Gb|:|-2--2-2-2-2-2--2-2-2-2-6--6-6-6-6-2--2-2-2-2-|
	Db|:|-2--2-2-2-2-2--2-2-2-2-6--6-6-6-6-4--4-4-4-4-|
	Ab|:|-0--0-0-0-0-0--0-0-0-0-4--4-4-4-4-4--4-4-4-4-|
	Eb|:|------------4--4-4-4-4------------2--2-2-2-2-|


	      Vision, you vision

	Eb|:|------------0--0-0-0-0-4--4-4-4-4-----------|
	Bb|:|-7--7-7-7-7-0--0-0-0-0-5--5-5-5-5-7----9----|
	Gb|:|-7--7-7-7-7-1--1-1-1-1-6--6-6-6-6-7----9----|
	Db|:|-7--7-7-7-7-2--2-2-2-2-6--6-6-6-6-7----9----|
	Ab|:|-5--5-5-5-5-2--2-2-2-2-4--4-4-4-4-5----7----|
	Eb|:|------------0--0-0-0-0----------------------|


----------|:|-------|
----------|:|-Verse-|
----------|:|-------|

		Not a whole lot goes on guitar-wise in this verse. Lots of ambient sounds, none of 
are really tab-able.


	      Open up your eyes

	Eb|:|--------------------------------------------|
	Bb|:|-9-10-9-10-------10-9-10-9-10-9-10-9-10-----|
	Gb|:|-----------10~--------------------------10~-|
	Db|:|--------------------------------------------|
	Ab|:|--------------------------------------------|
	Eb|:|--------------------------------------------|

	      And empty on to me the hurt, I could breathe the air,
	      Into your lungs and make them work, and find love, they gonna say that we're


	      Unstoppable through music's eyes

	Eb|:|-9------------------------------------|
	Bb|:|-10------10---12-------------12-------|
	Gb|:|-11------11------11----------------11-|
	Db|:|-11------12---------12---12-----12----|
	Ab|:|-9------------------------------------|
	Eb|:|--------------------------------------|


----------|:|--------|
----------|:|-Chorus-|
----------|:|--------|


	      Don't wait up, I will follow you, you

	Eb|:|-0--0-0-0-0-0--0-0-0-0-4--4-4-4-4-2--2-2-2-2-|
	Bb|:|-2--2-2-2-2-2--2-2-2-2-5--5-5-5-5-2--2-2-2-2-|
	Gb|:|-2--2-2-2-2-2--2-2-2-2-6--6-6-6-6-2--2-2-2-2-|
	Db|:|-2--2-2-2-2-2--2-2-2-2-6--6-6-6-6-4--4-4-4-4-|
	Ab|:|-0--0-0-0-0-0--0-0-0-0-4--4-4-4-4-4--4-4-4-4-|
	Eb|:|------------4--4-4-4-4------------2--2-2-2-2-|


	      Glisten, you reason

	Eb|:|------------0--0-0-0-0-4--4-4-4-4-----------|
	Bb|:|-7--7-7-7-7-0--0-0-0-0-5--5-5-5-5-7----9----|
	Gb|:|-7--7-7-7-7-1--1-1-1-1-6--6-6-6-6-7----9----|
	Db|:|-7--7-7-7-7-2--2-2-2-2-6--6-6-6-6-7----9----|
	Ab|:|-5--5-5-5-5-2--2-2-2-2-4--4-4-4-4-5----7----|
	Eb|:|------------0--0-0-0-0----------------------|


	      If you allow, I will follow you,

	Eb|:|-0--0-0-0-0-0--0-0-0-0-4--4-4-4-4-2--2-2-2-2-|
	Bb|:|-2--2-2-2-2-2--2-2-2-2-5--5-5-5-5-2--2-2-2-2-|
	Gb|:|-2--2-2-2-2-2--2-2-2-2-6--6-6-6-6-2--2-2-2-2-|
	Db|:|-2--2-2-2-2-2--2-2-2-2-6--6-6-6-6-4--4-4-4-4-|
	Ab|:|-0--0-0-0-0-0--0-0-0-0-4--4-4-4-4-4--4-4-4-4-|
	Eb|:|------------4--4-4-4-4------------2--2-2-2-2-|


	      Vision, you vision

	Eb|:|------------0--0-0-0-0-4--4-4-4-4-----------|
	Bb|:|-7--7-7-7-7-0--0-0-0-0-5--5-5-5-5-7----9----|
	Gb|:|-7--7-7-7-7-1--1-1-1-1-6--6-6-6-6-7----9----|
	Db|:|-7--7-7-7-7-2--2-2-2-2-6--6-6-6-6-7----9----|
	Ab|:|-5--5-5-5-5-2--2-2-2-2-4--4-4-4-4-5----7----|
	Eb|:|------------0--0-0-0-0----------------------|


----------|:|-------------|
----------|:|-Solo/Bridge-|
----------|:|-------------|

	Eb|:|------------------------------------------------------|
	Bb|:|-10-9-------------------------------------------------|
	Gb|:|------11-9--------------------9-----------------------|
	Db|:|-----------12-11-10-------------12-11-9-11-9----------|
	Ab|:|--------------------12-11~-------------------12-11-9~-|
	Eb|:|------------------------------------------------------|


	Eb|:|----------------------------------------------------------|
	Bb|:|-/10-9----------------------------------------------------|
	Gb|:|-------11-9--------------------9--------------------------|
	Db|:|------------12-11-10-------------12-11-9-11-9-------------|
	Ab|:|---------------------12-11~-------------------11h12p11-9~-|
	Eb|:|----------------------------------------------------------|


	Eb|:|-----------------9-10-12~-------------------------------|
	Bb|:|-10-9----9-10-12-----------------------------9--10--12~-|
	Gb|:|------11------------------/9----------9--11-------------|
	Db|:|-----------------------------12-11-12-------------------|
	Ab|:|--------------------------------------------------------|
	Eb|:|--------------------------------------------------------|


	Eb|:|-----------------9-10-12~---|----------------------------------------|
	Bb|:|-10-9----9-10-12------------|-10~~-----------------------------------|
	Gb|:|------11--------------------|----------------------------------------|
	Db|:|----------------------------|----------------------------------------|
	Ab|:|----------------------------|----------------------------------------|
	Eb|:|----------------------------|----------------------------------------|
	  | |
	Eb|:|----------------------------|------------9---------|--|--------------|
	Bb|:|----------------------------|-10------10---10------|--|-10--------10-|
	Gb|:|----------------------------|----9------------9----|--|----9----9----|
	Db|:|----------------------------|------11-----------11-|--|------11------|
	Ab|:|----------------------------|----------------------|--|--------------|
	Eb|:|----------------------------|----------------------|x3|--------------|


----------|:|--------|
----------|:|-Chorus-|
----------|:|--------|


	Repeat the chorus twice as normal. Use a bit of distortion/overdrive, and perhaps 
barre
	chords with powerchords.


	      Don't wait up, I will follow you, you

	Eb|:|-0--0-0-0-0-0--0-0-0-0-4--4-4-4-4-2--2-2-2-2-|
	Bb|:|-2--2-2-2-2-2--2-2-2-2-5--5-5-5-5-2--2-2-2-2-|
	Gb|:|-2--2-2-2-2-2--2-2-2-2-6--6-6-6-6-2--2-2-2-2-|
	Db|:|-2--2-2-2-2-2--2-2-2-2-6--6-6-6-6-4--4-4-4-4-|
	Ab|:|-0--0-0-0-0-0--0-0-0-0-4--4-4-4-4-4--4-4-4-4-|
	Eb|:|------------4--4-4-4-4------------2--2-2-2-2-|


	      Glisten, you reason

	Eb|:|------------0--0-0-0-0-4--4-4-4-4-----------|
	Bb|:|-7--7-7-7-7-0--0-0-0-0-5--5-5-5-5-7----9----|
	Gb|:|-7--7-7-7-7-1--1-1-1-1-6--6-6-6-6-7----9----|
	Db|:|-7--7-7-7-7-2--2-2-2-2-6--6-6-6-6-7----9----|
	Ab|:|-5--5-5-5-5-2--2-2-2-2-4--4-4-4-4-5----7----|
	Eb|:|------------0--0-0-0-0----------------------|


	      If you allow, I will follow you,

	Eb|:|-0--0-0-0-0-0--0-0-0-0-4--4-4-4-4-2--2-2-2-2-|
	Bb|:|-2--2-2-2-2-2--2-2-2-2-5--5-5-5-5-2--2-2-2-2-|
	Gb|:|-2--2-2-2-2-2--2-2-2-2-6--6-6-6-6-2--2-2-2-2-|
	Db|:|-2--2-2-2-2-2--2-2-2-2-6--6-6-6-6-4--4-4-4-4-|
	Ab|:|-0--0-0-0-0-0--0-0-0-0-4--4-4-4-4-4--4-4-4-4-|
	Eb|:|------------4--4-4-4-4------------2--2-2-2-2-|


	      Vision, you vision

	Eb|:|------------0--0-0-0-0-4--4-4-4-4-----------|
	Bb|:|-7--7-7-7-7-0--0-0-0-0-5--5-5-5-5-7----9----|
	Gb|:|-7--7-7-7-7-1--1-1-1-1-6--6-6-6-6-7----9----|
	Db|:|-7--7-7-7-7-2--2-2-2-2-6--6-6-6-6-7----9----|
	Ab|:|-5--5-5-5-5-2--2-2-2-2-4--4-4-4-4-5----7----|
	Eb|:|------------0--0-0-0-0----------------------|


----------|:|-------|
----------|:|-Outro-|
----------|:|-------|


	Eb|:|----------------------------------5----------|
	Bb|:|-10-9-----------------------------5----------|
	Gb|:|------11-9------------------------6----------|
	Db|:|-----------12-11-10---------------7----------|
	Ab|:|--------------------12-11~--------7----------|
	Eb|:|----------------------------------5----------|
Tap to rate this tab
 
# A B C D E F G H I J K L M N O P Q R S T U V W X Y Z