Song name
# A B C D E F G H I J K L M N O P Q R S T U V W X Y Z

Lostprophets - 4am For Ever tab

#----------------------------------PLEASE NOTE---------------------------------#
#This file is the author's own work and represents their interpretation of the #
#song. You may only use this file for private study, scholarship, or research. #
#------------------------------------------------------------------------------#



lostprophets 4 am for ever




 

 

Gtr I (D A D G B E) - 'clean (with electric tone)+fingers'
Gtr II (D A D G B E) - 'distortion +pick'


    Q=154
   4/4
    Gtr I
     E   E   E  E  E  E  E   E    E  E   E  E  E    E    E    E
||------------------------------|--------------------------------|
||o-(8)-(8)-(8)-8-(8)-8-(8)-(8)-|-8-(8)-(8)-8-(8)-(12)-(12)-(12)S|
||------------------------------|--------------------------------|
||------------------------------|--------------------------------|
||o-(7)-(7)-(7)-7-(7)-7-(7)-(7)-|-7-(7)-(7)-7-(7)-(10)-(10)-(10)S|
||------------------------------|--------------------------------|


                                1.,2.
   E  E  E   E   E  E  E   E    E  E   E  E  E   E  E  E
|-----------------------------|----------------------------||
|-(7)-7-(7)-(7)-(7)-7-(7)-(7)-|-7-(7)-(7)-7-(7)-(7)-7-(7)-o||
|-----------------------------|----------------------------||
|-----------------------------|----------------------------||
|-(5)-5-(5)-(5)-(5)-5-(5)-(5)-|-5-(5)-(5)-5-(5)-(5)-5-(5)-o||
|-----------------------------|----------------------------||


  3.
  Gtr I                       Gtr II
  E  E   E  E  E   E  E E     W          W          W          +W
|-------------------------||-----------|----------|----------|---------||
|-7-(7)-(7)-7-(7)-(7)-7---||o----------|-3--------|----------|--------o||
|-------------------------||--5--------|-2--------|----------|---------||
|-------------------------||--5--------|-0--------|-2--------|-(2)-----||
|-5-(5)-(5)-5-(5)-(5)-5---||o-3--------|-0--------|-2--------|-(2)----o||
|-------------------------||-----------|-0--------|-2--------|-(2)-----||


    Gtr I
     E   E   E  E  E  E  E   E    E  E   E  E  E    E    E    E
||------------------------------|--------------------------------|
||o-(8)-(8)-(8)-8-(8)-8-(8)-(8)-|-8-(8)-(8)-8-(8)-(12)-(12)-(12)S|
||------------------------------|--------------------------------|
||------------------------------|--------------------------------|
||o-(7)-(7)-(7)-7-(7)-7-(7)-(7)-|-7-(7)-(7)-7-(7)-(10)-(10)-(10)S|
||------------------------------|--------------------------------|


                                1.,2.
   E  E  E   E   E  E  E   E    E  E   E  E  E   E  E  E
|-----------------------------|-----------------------------||
|-(7)-7-(7)-(7)-(7)-7-(7)-(7)-|-7-(7)-(7)-7-(7)-(7)-7-(7)--o||
|-----------------------------|-----------------------------||
|-----------------------------|-----------------------------||
|-(5)-5-(5)-(5)-(5)-5-(5)-(5)-|-5-(5)-(5)-5-(5)-(5)-5-(5)--o||
|-----------------------------|-----------------------------||


  3.
                              Gtr II
  E  E   E  E  E   E  E E     W          W          W          +W
|-------------------------||-----------|----------|----------|---------||
|-7-(7)-(7)-7-(7)-(7)-7---||o----------|-3--------|----------|--------o||
|-------------------------||--5--------|-2--------|----------|---------||
|-------------------------||--5--------|-0--------|-2--------|-(2)-----||
|-5-(5)-(5)-5-(5)-(5)-5---||o-3--------|-0--------|-2--------|-(2)----o||
|-------------------------||-----------|-0--------|-2--------|-(2)-----||


    Gtr I
    Q  Q  E Q  E   Q  E E +E   E  E E
||---------------|--------------------|
||o----8----8----|-8----8-(8)----12---|
||---------------|--------------------|
||---------------|--------------------|
||o-7-----7----7-|----7-------10------|
||---------------|--------------------|


                 1.                  2.
  Q  Q  E Q  E   Q  E E +E  E Q      Q  E E +E  E q
|--------------|------------------||----------------|
|----7----7----|-7----7-(7)---7--o||-7----7-(7)---7-|
|--------------|------------------||----------------|
|--------------|------------------||----------------|
|-5-----5----5-|----5-------5----o||----5-------5---|
|--------------|------------------||----------------|


    Gtr II
    W          W          W          +W
||-----------|----------|----------|---------||
||o----------|-3--------|----------|--------o||
||--5--------|-2--------|----------|---------||
||--5--------|-0--------|-2--------|-(2)-----||
||o-3--------|-0--------|-2--------|-(2)----o||
||-----------|-0--------|-2--------|-(2)-----||


    E E E E E E E E   E  E  E  E  E  E E  E
||------------------|-----------------------|
||o-----------------|-----------------------|
||----9-9-9-9-9---9-|-----------------------|
||----9-9-9-9-9---9-|---10-10-10-10-10---10-|
||o---7-7-7-7-7---7-|---10-10-10-10-10---10-|
||------------------|---10-10-10-10-10---10-|


                            1.
  E  E  E  E  E  E E  E   E E E E E E E E
|-----------------------|------------------|
|-----------------------|------------------|
|---12-12-12-12-12---12-|---7-7-7-7-7---7--|
|---12-12-12-12-12---12-|---7-7-7-7-7---7--|
|---10-10-10-10-10---10-|---5-5-5-5-5---5--|
|-----------------------|------------------|


  E E E E E E E E   E  E  E  E  E  E E  E
|-----------------|-----------------------|
|-----------------|-----------------------|
|---9-9-9-9-9---9-|-----------------------|
|---9-9-9-9-9---9-|---10-10-10-10-10---10-|
|---7-7-7-7-7---7-|---10-10-10-10-10---10-|
|-----------------|---10-10-10-10-10---10-|


  E  E  E  E  E  E E  E   E  E  E  E  E  E E  E
|-----------------------|------------------------||
|-----------------------|-----------------------o||
|---12-12-12-12-12---12-|---11-11-11-11-11---11--||
|---12-12-12-12-12---12-|---12-12-12-12-12---12--||
|---10-10-10-10-10---10-|----9--9--9--9--9----9-o||
|-----------------------|------------------------||


  2.
  E E E E E E E S S   Q  E E E E E E   Q  E E E E E E   Q  E E E E E E
|-------------------|----------------|----------------|-----------------|
|-------------------|----------------|-3--3-3-3-3-3-3-|-----------------|
|---7-7-7-7-7---5-5-|-5--5-5-5-5-5-5-|-2--2-2-2-2-2-2-|-----------------|
|---7-7-7-7-7---5-5-|-5--5-5-5-5-5-5-|-0--0-0-0-0-0-0-|-2--2-2-2-2-2-2--|
|---5-5-5-5-5---3-3-|-3--3-3-3-3-3-3-|-0--0-0-0-0-0-0-|-2--2-2-2-2-2-2--|
|-------------------|----------------|-0--0-0-0-0-0-0-|-2--2-2-2-2-2-2--|


  E E E E E E E E   Q  E E E E E E
|-----------------|----------------|
|-----------------|----------------|
|-----------------|-5--5-5-5-5-5-5-|
|-4-4-4-4-4-4-4-4-|-5--5-5-5-5-5-5-|
|-4-4-4-4-4-4-4-4-|-3--3-3-3-3-3-3-|
|-4-4-4-4-4-4-4-4-|----------------|


  Q  E E E E E E   W          +E  E E E E E E E
|----------------|----------|-------------------|
|-3--3-3-3-3-3-3-|----------|-------------------|
|-2--2-2-2-2-2-2-|----------|-------------------|
|-0--0-0-0-0-0-0-|-2--------|-(2)-2-2-2-2-2-2-2-|
|-0--0-0-0-0-0-0-|-2--------|-(2)-2-2-2-2-2-2-2-|
|-0--0-0-0-0-0-0-|-2--------|-(2)-2-2-2-2-2-2-2-|


    Gtr I
    Q  Q  E Q  E   Q  E E +E   E  E E   Q  Q  E Q  E
||---------------|--------------------|--------------|
||o----8----8----|-8----8-(8)----12---|----7----7----|
||---------------|--------------------|--------------|
||---------------|--------------------|--------------|
||o-7-----7----7-|----7-------10------|-5-----5----5-|
||---------------|--------------------|--------------|


  1.                  2.
  Q  E E +E  E Q      Q  E E +E  E q
|------------------||-------------------|
|-7----7-(7)---7--o||-7----7-(7)---7----|
|------------------||-------------------|
|------------------||-------------------|
|----5-------5----o||----5-------5------|
|------------------||-------------------|


    Gtr II
    W          W          W          +W
||-----------|----------|----------|---------||
||o----------|-3--------|----------|--------o||
||--5--------|-2--------|----------|---------||
||--5--------|-0--------|-2--------|-(2)-----||
||o-3--------|-0--------|-2--------|-(2)----o||
||-----------|-0--------|-2--------|-(2)-----||


    W          +W           W          +W
||-----------|------------|----------|--------|
||o----------|------------|-3--------|-(3)----|
||--5--------|-(5)--------|-2--------|-(2)----|
||--5--------|-(5)--------|-0--------|-(0)----|
||o-3--------|-(3)--------|-0--------|-(0)----|
||-----------|------------|-0--------|-(0)----|


                        1.
  W          W          W          +W
|----------|----------|----------|---------||
|----------|----------|----------|--------o||
|----------|----------|----------|---------||
|-2--------|-2--------|-4--------|-(4)-----||
|-2--------|-2--------|-4--------|-(4)----o||
|-2--------|-2--------|-4--------|-(4)-----||


  2.
                    <
  E E E E E E E E   E E E E E E E E
|-----------------|------------------|
|-----------------|------------------|
|-----------------|------------------|
|-----------------|------------------|
|-2-2-2-2-2-2-2-2-|-2-2-2-2-2-2-2-2--|
|-2-2-2-2-2-2-2-2-|-2-2-2-2-2-2-2-2--|


                                                        ~~~
   Q.      E     +Q     Q     +E   E  E  E     E  E  E  E
|--------------------------|------------------------------|
|-15------15----(15)---15--|-(15)-------------------------|
|-16b18r==16b18r(16)---14--|-(14)-12-14-16b18r14-12-14-12-|
|--------------------------|------------------------------|
|--------------------------|------------------------------|
|--------------------------|------------------------------|


 ~~~~~~
   +E   E  E  E  +E   E  E  E    +E   E  E  E  +E   E   E  E
|-----------------------------|------------------------------|
|-----------------------------|-----------------------/12-15-|
|-(12)----12------------------|------------------------------|
|------14----14-(14)-12-14-12-|-(12)----12-------------------|
|-----------------------------|------14----14-(14)-12--------|
|-----------------------------|------------------------------|


   H        Q      S     S  E    +Q    Q      +E   E  E  E
|-----------------------------|----------------------------|
|-15b17r===15b17r=15b16-12-17-|-(17)--15b17r=(15)-12-15-12-|
|-----------------------------|----------------------------|
|-----------------------------|----------------------------|
|-----------------------------|----------------------------|
|-----------------------------|----------------------------|


   H        E     S  S  E   E    +E   E  E  E  +E   E  Q
|-15b17r===15b17r15-12----/19-|-(19)-17----17-(17)---------|
|----------------------15-----|---------20---------20-17\--|
|-----------------------------|----------------------------|
|-----------------------------|----------------------------|
|-----------------------------|----------------------------|
|-----------------------------|----------------------------|


   S  S  S  S  S  S  S  S  S  S  S  S  S  S  S  S
|-19-15-17-15-------19-15-17-15-------19-15-17-15-|
|-------------17-15-------------17-15-------------|
|-------------------------------------------------|
|-------------------------------------------------|
|-------------------------------------------------|
|-------------------------------------------------|


   S  S  S  S  S  S  S  S  S  S  S  S  S  S E      E  E  E  E  E  E  E  E
|-21-15-17-15-------21-15-17-15-------19-15----|-----12-------------------|
|-------------17-15-------------17-15----------|-----------15----12-------|
|----------------------------------------------|-----------------------12-|
|-------------------------------------------x\-|-/14----14----14----14----|
|-------------------------------------------x\-|--------------------------|
|-------------------------------------------x\-|--------------------------|


   E  E  E  E  E  E  E  E    +Q    Q   +E   Q.      Q.    E  +Q    Q
|-------------------------|----------------------|--------------------|
|-------------------------|----------------------|--------------------|
|----11-------------------|----------------------|--------------------|
|-14----14-12-14-12-------|----------------------|--------------------|
|-------------------14----|-------12--(12)-------|-10-----------------|
|----------------------17-|-(17)-----------16----|-------12-(12)--14--|


   S  S  S  S  S  S  S  S  S  S  S  S  S  S  S  S
|-15-12-------------------------------------------|
|-------15-12-15-12-15-12-------------------------|
|-------------------------14-12-14-12-14-12-------|
|-------------------------------------------14-12-|
|-------------------------------------------------|
|-------------------------------------------------|


   S  S  S  S  S  S  S  S  S  S  S  S  Q
|--------------------------------------------|
|--------------------------------------------|
|--------------------------------------------|
|-14-12-14-12--------------------------------|
|-------------14-12-14-12--------------------|
|-------------------------17-14-17-14-17\----|


    E E E E E E E E   E  E  E  E  E  E E  E
||------------------|-----------------------|
||o-----------------|-----------------------|
||----9-9-9-9-9---9-|-----------------------|
||----9-9-9-9-9---9-|---10-10-10-10-10---10-|
||o---7-7-7-7-7---7-|---10-10-10-10-10---10-|
||------------------|---10-10-10-10-10---10-|


                            1.
  E  E  E  E  E  E E  E   E E E E E E E E
|-----------------------|------------------|
|-----------------------|------------------|
|---12-12-12-12-12---12-|---7-7-7-7-7---7--|
|---12-12-12-12-12---12-|---7-7-7-7-7---7--|
|---10-10-10-10-10---10-|---5-5-5-5-5---5--|
|-----------------------|------------------|


  E E E E E E E E   E  E  E  E  E  E E  E
|-----------------|-----------------------|
|-----------------|-----------------------|
|---9-9-9-9-9---9-|-----------------------|
|---9-9-9-9-9---9-|---10-10-10-10-10---10-|
|---7-7-7-7-7---7-|---10-10-10-10-10---10-|
|-----------------|---10-10-10-10-10---10-|


  E  E  E  E  E  E E  E   E  E  E  E  E  E E  E
|-----------------------|------------------------||
|-----------------------|-----------------------o||
|---12-12-12-12-12---12-|---11-11-11-11-11---11--||
|---12-12-12-12-12---12-|---12-12-12-12-12---12--||
|---10-10-10-10-10---10-|----9--9--9--9--9----9-o||
|-----------------------|------------------------||


  2.
  E E E E E E S S Q    E E E E E E Q    E E E E E E Q    E E E E E E
|--------------------|----------------|----------------|-------------|
|--------------------|-------------3--|-3-3-3-3-3-3----|-------------|
|-7-7-7-7-7---5-5-5--|-5-5-5-5-5-5-2--|-2-2-2-2-2-2----|-------------|
|-7-7-7-7-7---5-5-5--|-5-5-5-5-5-5-0--|-0-0-0-0-0-0-2--|-2-2-2-2-2-2-|
|-5-5-5-5-5---3-3-3--|-3-3-3-3-3-3-0--|-0-0-0-0-0-0-2--|-2-2-2-2-2-2-|
|--------------------|-------------0--|-0-0-0-0-0-0-2--|-2-2-2-2-2-2-|


  E E E E E E E E   Q  E E E E E E
|-----------------|----------------|
|-----------------|----------------|
|-----------------|-5--5-5-5-5-5-5-|
|-4-4-4-4-4-4-4-4-|-5--5-5-5-5-5-5-|
|-4-4-4-4-4-4-4-4-|-3--3-3-3-3-3-3-|
|-4-4-4-4-4-4-4-4-|----------------|


  Q  E E E E E E   W          +E  E E E E E E E
|----------------|----------|-------------------|
|-3--3-3-3-3-3-3-|----------|-------------------|
|-2--2-2-2-2-2-2-|----------|-------------------|
|-0--0-0-0-0-0-0-|-2--------|-(2)-2-2-2-2-2-2-2-|
|-0--0-0-0-0-0-0-|-2--------|-(2)-2-2-2-2-2-2-2-|
|-0--0-0-0-0-0-0-|-2--------|-(2)-2-2-2-2-2-2-2-|


   PM--------------------------------------|
   E  E  E  E  E  E  E  E    E  E  E  E  E  E  E  E
|-------------------------|-------------------------|
|-------------------------|-------------------12----|
|-------------------------|-12----12----12-14----14-|
|-------12----12-14-12-14-|----14----14-------------|
|-12-14----14-------------|-------------------------|
|-------------------------|-------------------------|


   Q      E  E     +E   E  Q        E  E     E  E  H
|--------------------------------|--------------------------|
|--------15------------15--------|-15-------------15b17r====|
|-14b16r====14b16r(14)----14b16r=|====14b16r14-12-----------|
|--------------------------------|--------------------------|
|--------------------------------|--------------------------|
|--------------------------------|--------------------------|


  Q    Q   E  Q   E   E  Q   Q   Q.
|---------12-12-----|---12--15--12----|
|----/12---------15-|-----------------|
|-------------------|-----------------|
|-------------------|-----------------|
|-------------------|-----------------|
|-------------------|-----------------|


   H     +E   Q   Q        +Q    Q      Q   E   E
|-12----(12)\----17b19--|-(17)--17b19r=17--15--17-|
|-----------------------|-------------------------|
|-----------------------|-------------------------|
|-----------------------|-------------------------|
|-----------------------|-------------------------|
|-----------------------|-------------------------|


                                H.=H
   S  S  S  S  +Q   H      H     H     H       Q   Q   Q   Q     W
|------------------------|------------------|-----------------|-------|
|------------------------|------------------|-----------------|-------|
|-12---------------------|------14----------|-----------------|-------|
|----14-14-14-(14)-------|------------12----|-14----------12--|-14----|
|------------------------|------------------|-----12--14------|-------|
|------------------------|------------------|-----------------|-------|


   +W
|---------*|
|---------*|
|---------*|
|-(14)----*|
|---------*|
|---------*|




--------------------------------------------------------------------------------


Duration Legend
---------------
W - whole; H - half; Q - quarter; E - 8th; S - 16th; T - 32nd; X - 64th; a - acciaccatura
+ - note tied to previous; . - note dotted; .. - note double dotted
Uncapitalized letters represent notes that are staccato (1/2 duration)
Irregular groupings are notated above the duration line
Duration letters will always appear directly above the note/fret number it represents the
duration for.  Duration letters with no fret number below them represent rests.  Multi-
bar rests are notated in the form Wxn, where n is the number of bars to rest for.  Low
melody durations appear below the staff

Tablature Legend
----------------
 h   - hammer-on
 p   - pull-off
 b   - bend
 pb  - pre-bend
 r   - bend release (if no number after the r, then release immediately)
 /\  - slide into or out of (from/to "nowhere")
 s   - legato slide
 S   - shift slide
 - natural harmonic
[n]  - artificial harmonic
n(n) - tapped harmonic
 ~   - vibrato
 tr  - trill
 T   - tap
 TP  - trem. picking
 PM  - palm muting
\n/  - tremolo bar dip; n = amount to dip
 \n  - tremolo bar down
 n/  - tremolo bar up
/n\  - tremolo bar inverted dip
 =   - hold bend; also acts as connecting device for hammers/pulls
 <> - volume swell (louder/softer)
 x   - on rhythm slash represents muted slash
 o   - on rhythm slash represents single note slash

Misc Legend
-----------
 |  - bar
||  - double bar
||o - repeat start
o|| - repeat end
*|  - double bar (ending)
 :  - bar (freetime)
 $  - Segno
 &  - Coda
Tempo markers -  = BPM(8/16=s8/s16), where s8 = swing 8ths, s16 = swing 16ths



--------------------------------------------------------------------------------

** Generated using Power Tab Editor by Brad Larsen: The Official Power Tab Web Site
Tap to rate this tab
# A B C D E F G H I J K L M N O P Q R S T U V W X Y Z