Song name
# A B C D E F G H I J K L M N O P Q R S T U V W X Y Z

Lostprophets - Fake Sound Of Progress tab

#----------------------------------PLEASE NOTE---------------------------------#
#This file is the author's own work and represents their interpretation of the #
#song. You may only use this file for private study, scholarship, or research. #
#------------------------------------------------------------------------------##

                             FAKE SOUND OF PROGRESS
                          As recorded by Lost Prophets
                  (From the 2004 Album FAKE SOUND OF PROGRESS)

Music by Lost Prophets
Transcribed by lee

Gtr I (C G D F A D) - 'Untitled'
Gtr II (C G C F A D) - 'Untitled'
Gtr III (C G C F A D) - 'Untitled'

 Intro
  Q=180
 4/4
  Gtr I
   Q.     Q.      Q        Q.      Q.       Q
|----------------------|-<12>---(<12>)---(<12>)--|
|-<7>---(<7>)---(<7>)--|-------------------------|
|----------------------|-------------------------|
|----------------------|-------------------------|
|----------------------|-------------------------|
|----------------------|-------------------------|


    B5/E          Eb5/Ab        A5/Dopen      B5/EII
    Q.   Q.  Q    Q.   Q.  Q    Q.   Q.  Q    Q.   Q.   Q   4x
||--------------|-------------|-------------|-----------2---||
||o------5h==7--|------5h==7--|------5h==7--|------5-------o||
||--------------|-------------|-------------|---------------||
||--------------|-------------|-------------|---------------||
||o-------------|-------------|-------------|--------------o||
||--4-----------|-6-----------|-0-----------|-2-------------||


  B5/E               Eb5/Ab             A5/Dopen          B5/EII
   Q.   Q.  Q          Q.   Q.     Q     Q.      Q.  Q     Q.   Q.   Q
|------------------|------------------|-----------------|------------2---|
|-------5h==7------|--------5h=====7--|----------5h==7--|-------5--------|
|------------------|------------------|-----------------|----------------|
|------------------|------------------|-----------------|----------------|
|------------------|------------------|-----------------|----------------|
|--4---------------|---6--------------|--0--------------|--2-------------|
|
| Gtr II
|  Q.   H      +E     +H       Q   Q     E  H..            W
|------------------|------------------|-----------------|----------------|
|------------------|------------------|-----------------|----------------|
|-14p==11-----(11)-|-(11)-----14p=11--|-11S16-----------|-11-------------|
|------------------|------------------|-----------------|----------------|
|------------------|------------------|-----------------|----------------|
|------------------|------------------|-----------------|----------------|


  B5/E          Eb5/Ab        A5/Dopen      B5/EII
  Q.   Q.  Q    Q.   Q.  Q    Q.   Q.  Q    Q.   Q.   Q
|-------------|-------------|-------------|-----------2---|
|------5h==7--|------5h==7--|------5h==7--|------5--------|
|-------------|-------------|-------------|---------------|
|-------------|-------------|-------------|---------------|
|-------------|-------------|-------------|---------------|
|-4-----------|-6-----------|-0-----------|-2-------------|


   Pre-Verse
    B5/E           Eb5/Ab         A5/Dopen       B5/EII
    Gtr II
    W              W              W              W
||---------------|--------------|--------------|--------------|
||o--------------|--------------|--------------|--------------|
||---------------|--------------|--------------|--------------|
||--4------------|-6------------|-0------------|-2------------|
||o-4------------|-6------------|-0------------|-2------------|
||--4------------|-6------------|-0------------|-2------------|
|
|   Gtr I
|   Q  E Q.   Q    Q  E Q.   Q    Q  E Q.   Q    Q  E Q.   Q
||---------------|--------------|--------------|--------------|
||o------5----7--|------5----7--|------5----7--|------5----7--|
||---------------|--------------|--------------|--------------|
||---------------|--------------|--------------|--------------|
||o--------------|--------------|--------------|--------------|
||---------------|--------------|--------------|--------------|


  B5/E           Eb5/Ab         A5/Dopen       B5/EII
  W              W              W              H    E E E E
|--------------|--------------|--------------|----------------||
|--------------|--------------|--------------|---------------o||
|--------------|--------------|--------------|----------------||
|-4------------|-6------------|-0------------|-2----x-x-x-x---||
|-4------------|-6------------|-0------------|-2----x-x-x-x--o||
|-4------------|-6------------|-0------------|-2----x-x-x-x---||
|
| Q  E Q.   Q    Q  E Q.   Q    Q  E Q.   Q    W
|--------------|--------------|--------------|----------------||
|------5----7--|------5----7--|------5----7--|---------------o||
|--------------|--------------|--------------|----------------||
|--------------|--------------|--------------|----------------||
|--------------|--------------|--------------|---------------o||
|--------------|--------------|--------------|----------------||


  $
  B5/E
  W          +W           +W           +W
|----------|------------|------------|--------|
|----------|------------|------------|--------|
|----------|------------|------------|--------|
|-4--------|-(4)--------|-(4)--------|-(4)----|
|-4--------|-(4)--------|-(4)--------|-(4)----|
|-4--------|-(4)--------|-(4)--------|-(4)----|


   Verse
    E5/D                                D
    Gtr I
    Q.    Q.    Q     Q.    Q.    Q     Q.    Q.    Q     Q.    Q.    Q
||--9----(9)---(9)--|-9----(9)---(9)--|-7----(7)---(7)--|-7----(7)---(7)--|
||o-7----(7)---(7)--|-7----(7)---(7)--|-9----(9)---(9)--|-9----(9)---(9)--|
||--9----(9)---(9)--|-9----(9)---(9)--|-9----(9)---(9)--|-9----(9)---(9)--|
||------------------|-----------------|-----------------|-----------------|
||o-----------------|-----------------|-----------------|-----------------|
||------------------|-----------------|-----------------|-----------------|


  Dsus4
   Q.     Q.     Q      Q.     Q.     Q
|--7-----(7)----(7)--|--7-----(7)----(7)--|
|-10----(10)---(10)--|-10----(10)---(10)--|
|--9-----(9)----(9)--|--9-----(9)----(9)--|
|--------------------|--------------------|
|--------------------|--------------------|
|--------------------|--------------------|


  A5/D
  Q.    Q.    Q      Q    Q   Q   Q
|-7----(7)---(7)--|-12--(12)--7--(7)----||
|-7----(7)---(7)--|--------------------o||
|-9----(9)---(9)--|---------------------||
|-----------------|---------------------||
|-----------------|--------------------o||
|-----------------|---------------------||


   Pre-Chorus
    B5/E           Eb5/Ab         A5/Dopen
    Q  E Q.   Q    Q  E Q.   Q    Q  E Q.   Q
||-------9-------|------9-------|------9-------|
||o----7------7--|----7------7--|----7------7--|
||--9------------|-9------------|-9------------|
||---------------|--------------|--------------|
||o--------------|--------------|--------------|
||---------------|--------------|--------------|


 1.,2.,3.         4.
  B5/EII
                   Gtr II
  Q  E Q.   Q   4x E E E E E E E E
|------9--------||------------------|
|----7------7--o||------------------|
|-9-------------||------------------|
|---------------||-x-x-x-x-x-x-x-x--|
|--------------o||-x-x-x-x-x-x-x-x--|
|---------------||-x-x-x-x-x-x-x-x--|


   Chorus
    B5/E           Eb5/Ab         A5/Dopen       B5/EII
    W              W              W              W
||---------------|--------------|--------------|--------------|
||o--------------|--------------|--------------|--------------|
||---------------|--------------|--------------|--------------|
||--4------------|-6------------|-0------------|-2------------|
||o-4------------|-6------------|-0------------|-2------------|
||--4------------|-6------------|-0------------|-2------------|
|
|   Gtr I
|   Q  E Q.   Q    Q  E Q.   Q    Q  E Q.   Q    Q  E Q.   Q
||---------------|--------------|--------------|--------------|
||o------5----7--|------5----7--|------5----7--|------5----7--|
||---------------|--------------|--------------|--------------|
||---------------|--------------|--------------|--------------|
||o--------------|--------------|--------------|--------------|
||---------------|--------------|--------------|--------------|


                                                         D.S.
  B5/E           Eb5/Ab         A5/Dopen       B5/EII
  W              W              W              H       E E E E
|--------------|--------------|--------------|-------------------||
|--------------|--------------|--------------|------------------o||
|--------------|--------------|--------------|-------------------||
|-4------------|-6------------|-0------------|-2-------x-x-x-x---||
|-4------------|-6------------|-0------------|-2-------x-x-x-x--o||
|-4------------|-6------------|-0------------|-2-------x-x-x-x---||
|
| Q  E Q.   Q    Q  E Q.   Q    Q  E Q.   Q    Q  E Q.     Q
|--------------|--------------|--------------|-------------------||
|------5----7--|------5----7--|------5----7--|------5------7----o||
|--------------|--------------|--------------|-------------------||
|--------------|--------------|--------------|-------------------||
|--------------|--------------|--------------|------------------o||
|--------------|--------------|--------------|-------------------||


   Breakdown
    E5/D
    Gtr I
    Q  E Q.   Q    Q  Q  Q  Q    Q  E Q.   Q    Q  Q  Q  Q
||-------9-------|-------9-----|------9-------|-------9------||
||o----7------7--|----7-----7--|----7------7--|----7-----7--o||
||--9------------|-9-----------|-9------------|-9------------||
||---------------|-------------|--------------|--------------||
||o--------------|-------------|--------------|-------------o||
||---------------|-------------|--------------|--------------||


    E5/D                           D
    Q  E Q.   Q     Q   Q  Q  Q    Q  E Q.   Q     Q   Q  Q  Q
||-------9-------|---------9-----|------9-------|---------9-----|
||o----7------7--|------7-----7--|----7------7--|------7-----7--|
||--9------------|--9------------|-9------------|--9------------|
||---------------|---------------|--------------|---------------|
||o--------------|---------------|--------------|---------------|
||---------------|---------------|--------------|---------------|
|
|   Gtr II
|   W              +W              W              +W
||--9------------|-(9)-----------|-7------------|-(7)-----------|
||o-7------------|-(7)-----------|-9------------|-(9)-----------|
||--9------------|-(9)-----------|-9------------|-(9)-----------|
||---------------|---------------|--------------|---------------|
||o--------------|---------------|--------------|---------------|
||---------------|---------------|--------------|---------------|
|
|   Gtr III
|   W              +W              W              +W
||---------------|---------------|--------------|---------------|
||o--------------|---------------|--------------|---------------|
||---------------|---------------|--------------|---------------|
||--4------------|-(4)-----------|-2------------|-(2)-----------|
||o-4------------|-(4)-----------|-2------------|-(2)-----------|
||--4------------|-(4)-----------|-2------------|-(2)-----------|


  Dsus4                                             A5/D
   Q  E Q.   Q      Q   Q  Q  Q     Q      E  Q.    Q      Q    Q  Q   Q
|-------9-------|----------9-----|------------9---------|----------9---------||
|-----7------7--|-------7-----7--|---------7--------7---|-------7------7----o||
|--9------------|---9------------|--9-------------------|--9-----------------||
|---------------|----------------|----------------------|--------------------||
|---------------|----------------|----------------------|-------------------o||
|---------------|----------------|----------------------|--------------------||
|
|  W               +W               E   E  E  E  Q  E E    E  E Q  E E E E
|--7------------|--(7)-----------|--7---7--7--7-----7-7-|--7--7----7-7-7-7---||
|-10------------|-(10)-----------|-10--10-10-10-----7-7-|--7--7----7-7-7-7--o||
|--9------------|--(9)-----------|--9---9--9--9-----9-9-|--9--9----9-9-9-9---||
|---------------|----------------|----------------------|--------------------||
|---------------|----------------|----------------------|-------------------o||
|---------------|----------------|----------------------|--------------------||
|
|  W               +W              +W                     +W
|---------------|----------------|----------------------|--------------------||
|---------------|----------------|----------------------|-------------------o||
|---------------|----------------|----------------------|--------------------||
|--4------------|--(4)-----------|-(4)------------------|-(4)----------------||
|--2------------|--(2)-----------|-(2)------------------|-(2)---------------o||
|--2------------|--(2)-----------|-(2)------------------|-(2)----------------||


  E5
  Gtr II
  PM------------------------------|
  S S E E E E E E E   E E E E E E Q
|-------------------|----------------|
|-------------------|----------------|
|-------------------|----------------|
|-4-4-4-4-4-4-4---4-|---4---4-4-4----|
|-4-4-4-4-4-4-4---4-|---4---4-4-4----|
|-4-4-4-4-4-4-4---4-|---4---4-4-4----|


   Bridge
    B5/E
     PM---------------------------------------------
     S  S  E  E  E  E  E E  E   E  E E  E  E  E Q
||----------------------------|--------------------|
||o---------------------------|--------------------|
||----------------------------|--------------------|
||---4--4--4--4--4--4--4----4-|----4----4--4--4----|
||o--4--4--4--4--4--4--4----4-|----4----4--4--4----|
||---4--4--4--4--4--4--4----4-|----4----4--4--4----|
|
|   Gtr III
|    S  S  E  E  E  E  E E  E   E  E E  E  E  E Q
||----------------------------|--------------------|
||o---------------------------|--------------------|
||----------------------------|--------------------|
||--11-11-11-11-11-11-11---11-|---11---11-11-11----|
||o--9--9--9--9--9--9--9----9-|----9----9--9--9----|
||----------------------------|--------------------|


  B5/EII
 -----------------------|   PM----|
  S S E E E E E E E   E E E E E E Q
|-------------------|----------------|
|-------------------|----------------|
|-------------------|----------------|
|-2-2-2-2-2-2-2---2-|---2---2-2-2----|
|-2-2-2-2-2-2-2---2-|---2---2-2-2----|
|-2-2-2-2-2-2-2---2-|---2---2-2-2----|
|
| S S E E E E E E E   E E E E E E Q
|-------------------|----------------|
|-------------------|----------------|
|-------------------|----------------|
|-9-9-9-9-9-9-9---9-|---9---9-9-9----|
|-7-7-7-7-7-7-7---7-|---7---7-7-7----|
|-------------------|----------------|


  A5/Dopen                             E          B5/EII       A5/Dopen
  PM----------------------------|
  S S E E E E E E E   E E E E E E Q    E E E E Q  E E   E E Q  E E E E
|-------------------|----------------|----------------|-----------------||
|-------------------|----------------|----------------|----------------o||
|-------------------|----------------|----------------|-----------------||
|-0-0-0-0-0-0-0---0-|---0---0-0-0----|-4-4-4-4----2-2-|-2-2----0-0-0-0--||
|-0-0-0-0-0-0-0---0-|---0---0-0-0----|-2-2-2-2----2-2-|-2-2----0-0-0-0-o||
|-0-0-0-0-0-0-0---0-|---0---0-0-0----|-2-2-2-2----2-2-|-2-2----0-0-0-0--||
|
| S S E E E E E E E   E E E E E E Q    E E E E Q  E E   E E Q  E E E E
|-------------------|----------------|----------------|-----------------||
|-------------------|----------------|----------------|----------------o||
|-------------------|----------------|----------------|-----------------||
|-7-7-7-7-7-7-7---7-|---7---7-7-7----|-4-4-4-4----2-2-|-2-2----0-0-0-0--||
|-5-5-5-5-5-5-5---5-|---5---5-5-5----|-2-2-2-2----2-2-|-2-2----0-0-0-0-o||
|-------------------|----------------|-2-2-2-2----2-2-|-2-2----0-0-0-0--||


    B5/E           Eb5/Ab        A5/Dopen
    W              W             W
||---------------|-------------|--------------|
||o--------------|-------------|--------------|
||---------------|-------------|--------------|
||--4------------|-6-----------|-0------------|
||o-4------------|-6-----------|-0------------|
||--4------------|-6-----------|-0------------|
|
|   Gtr I
|   Q  E Q.   Q    Q  Q  Q  Q    Q  E Q.   Q
||-------9-------|-------9-----|------9-------|
||o----7------7--|----7-----7--|----7------7--|
||--9------------|-9-----------|-9------------|
||---------------|-------------|--------------|
||o--------------|-------------|--------------|
||---------------|-------------|--------------|


 1.,2.,3.        4.
  B5/EII
  W            4x W
|--------------||------------------|
|-------------o||------------------|
|--------------||------------------|
|-2------------||------------------|
|-2-----------o||------------------|
|-2------------||------------------|
|
|                 Gtrs II, III
| Q  Q  Q  Q   4x E E E E E E E E
|-------9------||------------------|
|----7-----7--o||------------------|
|-9------------||------------------|
|--------------||-x-x-x-x-x-x-x-x--|
|-------------o||-x-x-x-x-x-x-x-x--|
|--------------||-x-x-x-x-x-x-x-x--|


   Out-Chorus
    B5/E       Eb5/Ab     A5/Dopen   B5/EII
    W          W          W          W
||-----------|----------|----------|------|
||o----------|----------|----------|------|
||-----------|----------|----------|------|
||--4--------|-6--------|-0--------|-2----|
||o-4--------|-6--------|-0--------|-2----|
||--4--------|-6--------|-0--------|-2----|


  B5/E       Eb5/Ab     A5/Dopen   B5/EII
  W          W          W          H    E E E E
|----------|----------|----------|----------------||
|----------|----------|----------|---------------o||
|----------|----------|----------|----------------||
|-4--------|-6--------|-0--------|-2----x-x-x-x---||
|-4--------|-6--------|-0--------|-2----x-x-x-x--o||
|-4--------|-6--------|-0--------|-2----x-x-x-x---||


    B5/E           Eb5/Ab        A5/Dopen       B5/EII
    W              W             W              W            4x
||---------------|-------------|--------------|--------------||
||o--------------|-------------|--------------|-------------o||
||---------------|-------------|--------------|--------------||
||--4------------|-6-----------|-0------------|-2------------||
||o-4------------|-6-----------|-0------------|-2-----------o||
||--4------------|-6-----------|-0------------|-2------------||
|
|   Gtr III
|   Q  E Q.   Q    Q  Q  Q  Q    Q  E Q.   Q    Q  Q  Q  Q   4x
||-------9-------|-------9-----|------9-------|-------9------||
||o----7------7--|----7-----7--|----7------7--|----7-----7--o||
||--9------------|-9-----------|-9------------|-9------------||
||---------------|-------------|--------------|--------------||
||o--------------|-------------|--------------|-------------o||
||---------------|-------------|--------------|--------------||


  B5/E A5/Dopen
  H    H      +W           +W           +W
|-----------|------------|------------|--------*|
|-----------|------------|------------|--------*|
|-----------|------------|------------|--------*|
|-4----0----|-(0)--------|-(0)--------|-(0)----*|
|-4----0----|-(0)--------|-(0)--------|-(0)----*|
|-4----0----|-(0)--------|-(0)--------|-(0)----*|


Duration Legend
---------------
W - whole; H - half; Q - quarter; E - 8th; S - 16th; T - 32nd; X - 64th; a - acciaccatura
+ - note tied to previous; . - note dotted; .. - note double dotted
Uncapitalized letters represent notes that are staccato (1/2 duration)
Irregular groupings are notated above the duration line
Duration letters will always appear directly above the note/fret number it represents the
duration for.  Duration letters with no fret number below them represent rests.  Multi-
bar rests are notated in the form Wxn, where n is the number of bars to rest for.  Low
melody durations appear below the staff

Tablature Legend
----------------
 h   - hammer-on
 p   - pull-off
 b   - bend
 pb  - pre-bend
 r   - bend release (if no number after the r, then release immediately)
 /\  - slide into or out of (from/to "nowhere")
 s   - legato slide
 S   - shift slide
  - natural harmonic
[n]  - artificial harmonic
n(n) - tapped harmonic
 ~   - vibrato
 tr  - trill
 T   - tap
 TP  - trem. picking
 PM  - palm muting
\n/  - tremolo bar dip; n = amount to dip
 \n  - tremolo bar down
 n/  - tremolo bar up
/n\  - tremolo bar inverted dip
 =   - hold bend; also acts as connecting device for hammers/pulls
 <>  - volume swell (louder/softer)
 x   - on rhythm slash represents muted slash
 o   - on rhythm slash represents single note slash

Misc Legend
-----------
 |  - bar
||  - double bar
||o - repeat start
o|| - repeat end
*|  - double bar (ending)
 :  - bar (freetime)
 $  - Segno
 &  - Coda
Tempo markers -  = BPM(8/16=s8/s16), where s8 = swing 8ths, s16 = swing 16ths
Tap to rate this tab
 
# A B C D E F G H I J K L M N O P Q R S T U V W X Y Z