Song name
# A B C D E F G H I J K L M N O P Q R S T U V W X Y Z

Lostprophets - Make A Move tab

This is in D tuning,down 1 step:
(low to high)CGCFAD Guitar 1(clean)
Inro:
C|--------------------------------------|----------------------------------|
G|-------13-------------13--------------|------13------------13------------|
C|-14------------14-----------14--(14)--|14-----------14----------14-------|
F|----12-------12----12-----12--------12|---12------12----12----12----12---|
A|--------------------------------------|----------------------------------|
D|--------------------------------------|----------------------------------|

C|--------------------------------------|----------------------------------|
G|-------13-------------13--------------|------13------------13------------|
C|-14------------14-----------14--(14)--|14-----------14----------14-------|
F|----12-------12----12-----12--------12|---12------12----12----12----12---|
A|--------------------------------------|----------------------------------|
D|--------------------------------------|----------------------------------|

C|--------------------------------------|----------------------------------|
G|-------13-------------13--------------|------13------------13------------|
C|-14------------14-----------14--(14)--|14-----------14----------14-------|
F|----12-------12----12-----12--------12|---12------12----12----12----12---|
A|--------------------------------------|----------------------------------|
D|--------------------------------------|----------------------------------|

C|-------------------------------------------------------|
G|---------13--------------------13----------------------|
C|-14-----------------14-------------------14---(14)-----|
F|-----12---------12--------12---------12-------------12-|
A|-------------------------------------------------------|
D|-------------------------------------------------------|

C|--------------------------------------------------------|
G|---------13---------------------13----------------------|
C|-14----------------14--------------------14-------------|
F|-----12--------12--------12----------12-----------------|
A|--------------------------------------------------------|
D|--------------------------------------------------------|


This is my first tab but im almost positive its correct.
                        Enjoy!
Tap to rate this tab
# A B C D E F G H I J K L M N O P Q R S T U V W X Y Z