Song name
# A B C D E F G H I J K L M N O P Q R S T U V W X Y Z

Lostprophets - Rooftops tab

Song: Rooftops
Artist: Melissa McClelland
Tabbed by: Alex
Email: ellienash@msn.com

Hi :)I heard this song on Degrassi a few years ago and I'm absolutely in love with it, 
I haven't been able to find any tabs for it, so I tried figuring it out myself. I think 
chorus may be wrong in a few spots, but I think it's pretty close. Enjoy :)

Intro/Verse:

e-2-------7---------------------|
B-----------------0h3-0--0h3-0--|
G---0---0---0---0-------0------0|  (repeated until verse is over)
D-2---0---0---0-----------------|
A-------------------------------|
E-------------------------------|

Chorus:

e---------------------------------------------------------------------|
B-----1---1---0---0---3-------3-------1---1---0---0---3-------2-------|
G-------0---0---0---0---0---0---0-------0---0---0---0---0---0---0---0-|
D-------------------------0-------0-----------------------0-------0---|
A-----------------------------------0---------------------------------|
E-5-5-(i think there's more on this string but i can't figure it out)

e------------------------------------------------|
B-1-------0------3-------3-2-----1-------3-------|
G---0---0---0--0---0---0----0--0---0--0------0---|
D-----2-------0------0--------0------2---------0-|
A------------------------------------------------|
E------------------------------------------------|

Refrain:

e------------------------------------|
B-0h3-0---0h3-0-----0h3-0--0h3-0-----|
G-------0-------0--------0-------0---|
D------------------------------------|
A-----------------3-3-------------3-3|
E------------------------------------|

After Bridge (I really don't know what to call this lol)  :

e-3------2|
B---0--3--|
G---------|
D---------|
A---------|
E---------|

Order-
Intro/Verse
Chorus
Refrain
Intro/Verse
Chorus
Refrain
Intro/Verse
Chorus (as the bridge)
After bridge part
Chorus
Refrain
Intro/Verse
Refrain until the end

Crouched down on a rooftop
In my mother's high-heeled shoes
I'm wondering if I will drop
Fly away with you

I can smell the rain coming
But I won't leave until it falls
I'm gonna soak in its downpour
Til I hear my mother's calls

Cause I am playing God
I am raising hell
As far as I can tell
I am all alone
Alone in this world
Alone, with you

I carry Spring rain in my hair
Weighted sorrow in perfect clouds
Bursting in the air
Wash away and drown

I am playing God
I am raising hell
As far as I can tell
I am all alone
Alone in this world
Alone, with you

The roof slips beneath my feet
As the branches back away from me
The softest grass turns to concrete
But I will fly
I will fly
You will see

Cause I am playing God
I am raising hell
As far as I can tell
I am all alone
Alone in this world
Alone
Tap to rate this tab
# A B C D E F G H I J K L M N O P Q R S T U V W X Y Z