Song name
# A B C D E F G H I J K L M N O P Q R S T U V W X Y Z

Lostprophets - Ordinary Life tab

Song: Ordinary Life (Demo)
Band: Lostprophets
Album: Roopftops (A Liberation Broadcast) CD SINGLE

Standard Tuning

Intro:
e|----------------|x3
B|----------------|
G|-44-99-77-------|
D|-xx-xx-xx-77-77-|
A|-22-77-55-xx-xx-|
E|----------55-55-|

e|-------------|
B|-------------|
G|-44-99-77----|
D|-xx-xx-xx-77-|
A|-22-77-55-xx-|
E|----------55-|

then

e|----------------------------------|
B|----------------------------------|
G|-44-99-77--------44-99-77---------|
D|-44-99-77-77-77--44-99-77-77---77-|
A|-22-77-55-77-77--22-77-55-77---77-|
E|----------55-55-----------55---55-|

e|---------------------------------|
B|---------------------------------|
G|-44-99-77--------44-99-77--------|
D|-44-99-77-77-77--44-99-77-77-7-7-|
A|-22-77-55-77-77--22-77-55-77-7-7-|
E|----------55-55-----------55-5-5-|

Verse 1
e|----------|
B|----------|
G|-44-99-77-|
D|-xx-xx-xx-|
A|-22-77-55-|
E|----------|

e|-------------|
B|-------------|
G|-44-99-77----|
D|-xx-xx-xx-77-|
A|-22-77-55-xx-|
E|----------55-|

e|----------|
B|----------|
G|-44-99-77-|
D|-xx-xx-xx-|
A|-22-77-55-|
E|----------|

e|----------------|
B|----------------|
G|-44-99-77-------|
D|-xx-xx-xx-77-77-|
A|-22-77-55-xx-xx-|
E|----------55-55-|

Pre-Chorus 1
e|----------------|x3
B|----------------|
G|-44-99-77-------|
D|-xx-xx-xx-77-77-|
A|-22-77-55-xx-xx-|
E|----------55-55-|

e|-------------|
B|-------------|
G|-44-99-77----|
D|-xx-xx-xx-77-|
A|-22-77-55-xx-|
E|----------55-|

Chorus 1
e|----------------------------------|
B|----------------------------------|
G|-44-99-77--------44-99-77---------|
D|-44-99-77-77-77--44-99-77-77---77-|
A|-22-77-55-77-77--22-77-55-77---77-|
E|----------55-55-----------55---55-|

e|---------------------------------|
B|---------------------------------|
G|-44-99-77--------44-99-77--------|
D|-44-99-77-77-77--44-99-77-77-7-7-|
A|-22-77-55-77-77--22-77-55-77-7-7-|
E|----------55-55-----------55-5-5-|

Verse 2: same as verse 1
Pre-chorus 2: same as pre-chorus 1
Chorus 2: play Chorus 1 twice

Bridge (gtr1):
e|------------------------|x3
B|------------------------|
G|------------------------|
D|-5555555555-77777777777-|
A|-5555555555-77777777777-|
E|-3333333333-55555555555-|

e|-------------------|
B|-------------------|
G|-------------------|
D|-4444444444/99xx99-|
A|-4444444444/99xx99-|
E|-2222222222/77xx77-|

Bridge (gtr2):

e|-------------------|x3
B|-------------------|
G|----------99999999-|
D|-77777777----------|
A|-------------------|
E|-------------------|

e|------------------------|
B|-----------12-12xx12-12-|
G|-999999999-11-11xx11-11-|
D|-----------x--x-xxx--x--|
A|------------------------|
E|------------------------|

Verse 3: don't play

Chorus 3: same as chorus 2

Outro:

e|-------------|x4
B|-------------|
G|-44-99-77----|
D|-44-99-77-77-|
A|-22-77-55-77-|
E|----------55-|

End on

e|----| (let ring)
B|----|
G|----|
D|-99-|
A|-99-|
E|-77-|

A track that should have been on the fantastic new album! hope it's right!
Tap to rate this tab
# A B C D E F G H I J K L M N O P Q R S T U V W X Y Z