Song name
# A B C D E F G H I J K L M N O P Q R S T U V W X Y Z

Lostprophets - Rooftops Acoustic tab

Help us improve GuitareTab! Take a short survey!
Rooftops - Lost Prophets
-------------------------------------------------------------------------------
Tabbed by: Deco87
Email: deaglanmcafee@hotmail.com

Tuning:  Drop C
Intro
D|--8-9--------8--------------------7----------------------------------------------------|
A|--8-9-10-----8-10------10---------7-10-----10-----9------------------------------------|
F|--8-9--------8---------9----------7-9------9------9------------------------------------|
C|7-8-9------7-8---------7----------7--------7------7------------------------------------|
G|--8-9--------8-9------------------7--------8-------------------------------------------|
C|--8-9--------8--------------------7----------------------------------------------------|

Verse 1
D|---------7---------------------------------------------------------------------------|
A|--10-----7-10-----10------9----------------------------------------------------------|
F|--9------7-9------9-------9----------------------------------------------------------|
C|--7------7--------7-------7----------------------------------------------------------|
G|---------7--------8------------------------------------------------------------------|
C|---------7---------------------------------------------------------------------------|

Chorus
e|------------------------------------------------------------------|
B|---3-----------------3-------------3------------------3-----------|
G|---2-----------------2-------------2------------------2-----------|
D|-----222--444--7-------222-444--2-------222--444--7-------222--4--|
A|-----222--444--7-------222-444--2-------222--444--7-------222--4--|
E|-----222--444--7-------222-444--2-------222--444--7-------222--4--|

Verse 2
e|---------7---------------------------------------------------------------------------|
B|--10-----7--10----10-----9-----------------------------------------------------------|
G|--9------7--9-----9------9-----------------------------------------------------------|
D|--7------7--------7------7-----------------------------------------------------------|
A|---------7--------8------------------------------------------------------------------|
E|---------7---------------------------------------------------------------------------|

solo
e|-9---17---16---12---9---14---16---12----9----17----20----16---14----12---9--|
B|----------------------------------------------------------------------------|
G|-6---14---13---9----6---11---13---9-----6----14----17----13---11----9----6--|
D|----------------------------------------------------------------------------|
A|----------------------------------------------------------------------------|
E|----------------------------------------------------------------------------|

e|-----14----------------------------------------------------------------------------|
B|-----------------------------------------------------------------------------------|
G|-----11----------------------------------------------------------------------------|
D|----------------222----222---------------------------------------------------------|
A|----------------222----222---------------------------------------------------------|
E|----------------222----222---------------------------------------------------------|

Bridge part 1
e|--------------------------------------------------------------------------------|
B|--------------------------------------------------------------------------------|
G|------5------7-----9------11----------------------------------------------------|
D|------5------7-----9------11----------------------------------------------------|
A|------3------5-----7------9-----------------------------------------------------|
E|--------------------------------------------------------------------------------|

Bridge Part 2- different strumming pattern, play 4 times
e|--------------------------------------------------------------------------------------|
B|------3-------------------------------------------------------------------------------|
G|------2-------------------------------------------------------------------------------|
D|----------222----444----777-----------------------------------------------------------|
A|----------222----444----777-----------------------------------------------------------|
E|----------222----444----777-----------------------------------------------------------|
Related for Rooftops Acoustic tab