Song name
# A B C D E F G H I J K L M N O P Q R S T U V W X Y Z

Lostprophets - Last Train Home Acoustic tab

	Lost Prophets: Last Train Home
Tuning: Drop D (Dadgbe) 
Tabber: drewdunkin1992

NOTE THIS IS HOW I PLAY THE SONG ON MY ACOUSTIC NOT HOW TO PLAY THERE ACOUSTIC 
VERSION...but hungryhamster already has an excellent tab up for that version……

FINGERS
1=POINTER
2=MIDDLE
3=INDEX
4=PINKY

Intro: 0:00     I’ll soon have a GP5 version up w/ the exact rhythm part
(Lead fingerpick
   1.3.2                      
E|-----7------7------7------7------7------7------7------7--|
B|---8------8------8------8------8------8------8------8----|
G|-5------5------5------5----------------------------------|
D|---------------------------------------------------------|
A|-----------------------------7------7------7------7------|
D|---------------------------------------------------------|
Let ring……………………………………………………… ………………………………………………………………………
     3.2                        .3.1 
E|-----7------7------7------7------5------5------5------5--|
B|---8------8------8------8------8------8------8------8----|
G|---------------------------------------------------------|
D|---------------------------------------------------------|
A|---------------------------------------------------------|
D|-0------0------0------0------0------0------0------0------|
Let ring……………………………………………………… ………………………………………………………………………

0:11
Chorus no vocals  x2
(Rhythm):    here is the strum pattern used 
E|-0-0-0000-00-0000-0-0-0000-00-0000--|
B|-1-1-1111-11-1111-0-0-0000-00-0000--|
G|-0-0-0000-00-0000-0-0-0000-00-0000--|
D|-2-2-2222-22-2222-2-2-2222-22-2222--|
A|-3-3-3333-33-3333-2-2-2222-22-2222--|
D|------------------2-2-2222-22-2222-|

E|-2-2---2-2-2---2-2-2---2-2-2---2-2-2---2-2-2---2-2-2---2-2-|
B|-3-3---3-3-3---3-3-3---3-3-3---3-3-3---3-3-3---3-3-3---3-3-|
G|-2-2---2-2-2---2-2-2---2-2-2---2-2-2---2-2-2---2-2-2---2-2-|
D|-4-4---4-4-4---4-4-4---4-4-4---4-4-4---4-4-4---4-4-4---4-4-|
A|-0-0---0-0-0---0-0-0---0-0-0---0-0-0---0-0-0---0-0-0---0-0-|
D|-0-0---0-0-0---0-0-0---0-0-0---0-0-0---0-0-0---0-0-0---0-0-|

(Lead fingerpick
   1.3.2                      
E|-----7------7------7------7------7------7------7------7--|
B|---8------8------8------8------8------8------8------8----|
G|-5------5------5------5----------------------------------|
D|---------------------------------------------------------|
A|-----------------------------7------7------7------7------|
D|---------------------------------------------------------|
Let ring……………………………………………………… ………………………………………………………………………
     3.2                        .3.1 
E|-----7------7------7------7------5------5------5------5--|
B|---8------8------8------8------8------8------8------8----|
G|---------------------------------------------------------|
D|---------------------------------------------------------|
A|---------------------------------------------------------|
D|-0------0------0------0------0------0------0------0------|
Let ring……………………………………………………… ………………………………………………………………………




0:29
Verse (Lead): 
E|-77--7777-77-7777--77--7777-77-7777--77--777-5-55-5555-77--777-5-55-5555-------|
B|-88-—8888-88-8888--88--8888-88-8888--88--888-8-88-8888-88--888-8-88-8888-------|
G|-55--5555-55-5550--99--9999-99-9999--77--770-7-77-7770-77--770-7-77-7770-------|
D|----------------0--XX--XXXX-XX-XXXX--00--000-0-00-0000-00--000-0-00-0000--------x2 then
A|-------------------77--7777-77-7777--00--000-0-00-0000-00--000-0-00-0000-------|
D|-------------------------------------00--000-0-00-0000-00--000-0-00-0000-------|


( X= 10’S ………………….)  
E|-77--777X-XX-7777—-77--777X-XX-7777--77--777-X-XX-XX55-77--777-X-XX-5555-------|
B|-88-—8888-88-8888--88--8888-88-8888--88--888-8-88-8888-88--888-8-88-8888-------|
G|-55--5555-55-5550--99--9999-99-9999--77--770-7-77-7770-77--770-7-77-7770-------|
D|----------------0--XX--XXXX-XX-XXXX--00--000-0-00-0000-00--000-0-00-0000-------|
A|-------------------77--7777-77-7777--00--000-0-00-0000-00--000-0-00-0000-------|
D|-------------------------------------00--000-0-00-0000-00--000-0-00-0000-------|

E|-77--7777-77-7777--77--7777-77-7777--77--777-5-55-5555-77--777-5-55-5555-------|
B|-88-—8888-88-8888--88--8888-88-8888--88--888-8-88-8888-88--888-8-88-8888-------|
G|-55--5555-55-5550--99--9999-99-9999--77--770-7-77-7770-77--770-7-77-7770-------|
D|----------------0--XX--XXXX-XX-XXXX--00--000-0-00-0000-00--000-0-00-0000-------|
A|-------------------77--7777-77-7777--00--000-0-00-0000-00--000-0-00-0000-------|
D|-------------------------------------00--000-0-00-0000-00--000-0-00-0000-------|

1:06
Pre-Chorus X2
E|-0-0-0-0-0-0-000-0-0-0-0-0-0-0-0-------------|
B|-0-0-0-0-0-0-000-1-1-1-1-1-1-1-1-------------|
G|-2-2-2-2-2-2-444-0-0-0-0-0-0-0-0-------------|
D|-2-2-2-2-2-2-444-2-2-2-2-2-2-2-2-------------|
A|-0-0-0-0-0-0-222-3-3-3-3-3-3-3-3-------------|
D|---------------------------------------------|
                                                 2 TIME PLAY THIS FOR END
E|---------------------------------------------|-----7------7------7---------
B|-8-8-8-8-8-8-8-8-8-8-7-7-7-7-7-7-7-7-7-7-7-7-|---8------8------8-----------
G|-7-7-7-7-7-7-7-7-7-7-7-7-7-7-7-7-7-7-7-7-7-7-|-5------5------5-------------
D|-5-5-5-5-5-5-5-5-5-5-0-0-0-0-0-0-0-0-0-0-0-0-|
A|-5-5-5-5-5-5-5-5-5-5-0-0-0-0-0-0-0-0-0-0-0-0-|
D|-5-5-5-5-5-5-5-5-5-5-0-0-0-0-0-0-0-0-0-0-0-0-|

1:26
Chorus x2
(Rhythm): 
E|-0-0-0-0-0-0-0-0-0-0-0-0-0-0-0-0-0-0-0-0-0-0-0-0-0-0-0-0-|
B|-1-1-1-1-1-1-1-1-1-1-1-1-1-1-0-0-0-0-0-0-0-0-0-0-0-0-0-0-|
G|-0-0-0-0-0-0-0-0-0-0-0-0-0-0-0-0-0-0-0-0-0-0-0-0-0-0-0-0-|
D|-2-2-2-2-2-2-2-2-2-2-2-2-2-2-2-2-2-2-2-2-2-2-2-2-2-2-2-2-|
A|-3-3-3-3-3-3-3-3-3-3-3-3-3-3-2-2-2-2-2-2-2-2-2-2-2-2-2-2-|
D|-----------------------------2-2-2-2-2-2-2-2-2-2-2-2-2-2-|

E|-2-2---2-2-2---2-2-2---2-2-2---2-2-2---2-2-2---2-2-2---2-2-|
B|-3-3---3-3-3---3-3-3---3-3-3---3-3-3---3-3-3---3-3-3---3-3-|
G|-2-2---2-2-2---2-2-2---2-2-2---2-2-2---2-2-2---2-2-2---2-2-|
D|-4-4---4-4-4---4-4-4---4-4-4---4-4-4---4-4-4---4-4-4---4-4-|
A|-0-0---0-0-0---0-0-0---0-0-0---0-0-0---0-0-0---0-0-0---0-0-|
D|-0-0---0-0-0---0-0-0---0-0-0---0-0-0---0-0-0---0-0-0---0-0-|

(Lead fingerpick
   1.3.2                      
E|-----7------7------7------7------7------7------7------7--|
B|---8------8------8------8------8------8------8------8----|
G|-5------5------5------5----------------------------------|
D|---------------------------------------------------------|
A|-----------------------------7------7------7------7------|
D|---------------------------------------------------------|
Let ring……………………………………………………… ………………………………………………………………………
     3.2                        .3.1 
E|-----7------7------7------7------5------5------5------5--|
B|---8------8------8------8------8------8------8------8----|
G|---------------------------------------------------------|
D|---------------------------------------------------------|
A|---------------------------------------------------------|
D|-0------0------0------0------0------0------0------0------|
Let ring……………………………………………………… ………………………………………………………………………

1:46
Verse (Lead) 
E|-77--7777-77-7777--77--7777-77-7777--77--777-5-55-5555-77--777-5-55-5555-------|
B|-88-—8888-88-8888--88--8888-88-8888--88--888-8-88-8888-88--888-8-88-8888-------|
G|-55--5555-55-5550--99--9999-99-9999--77--770-7-77-7770-77--770-7-77-7770-------|
D|----------------0--XX--XXXX-XX-XXXX--00--000-0-00-0000-00--000-0-00-0000-----X2- then
A|-------------------77--7777-77-7777--00--000-0-00-0000-00--000-0-00-0000-------|
D|-------------------------------------00--000-0-00-0000-00--000-0-00-0000-------|

( X= 10’S ………………….)  
E|-77--777X-XX-7777—-77--777X-XX-7777--77--777-X-XX-XX55-77--777-X-XX-5555-------|
B|-88-—8888-88-8888--88--8888-88-8888--88--888-8-88-8888-88--888-8-88-8888-------|
G|-55--5555-55-5550--99--9999-99-9999--77--770-7-77-7770-77--770-7-77-7770-------|
D|----------------0--XX--XXXX-XX-XXXX--00--000-0-00-0000-00--000-0-00-0000-------|
A|-------------------77--7777-77-7777--00--000-0-00-0000-00--000-0-00-0000-------|
D|-------------------------------------00--000-0-00-0000-00--000-0-00-0000-------|

E|-77--7777-77-7777--77--7777-77-7777--77--777-5-55-5555-77--777-5-55-5555-------|
B|-88-—8888-88-8888--88--8888-88-8888--88--888-8-88-8888-88--888-8-88-8888-------|
G|-55--5555-55-5550--99--9999-99-9999--77--770-7-77-7770-77--770-7-77-7770-------|
D|----------------0--XX--XXXX-XX-XXXX--00--000-0-00-0000-00--000-0-00-0000-------|
A|-------------------77--7777-77-7777--00--000-0-00-0000-00--000-0-00-0000-------|
D|-------------------------------------00--000-0-00-0000-00--000-0-00-0000-------|

2:24
pre-Chorus X2
E|-0-0-0-0-0-0-000-0-0-0-0-0-0-0-0-------------|
B|-0-0-0-0-0-0-000-1-1-1-1-1-1-1-1-------------|
G|-2-2-2-2-2-2-444-0-0-0-0-0-0-0-0-------------|
D|-2-2-2-2-2-2-444-2-2-2-2-2-2-2-2-------------|
A|-0-0-0-0-0-0-222-3-3-3-3-3-3-3-3-------------|
D|---------------------------------------------|
                                                 2 TIMRE PLSY THIS FOR END
E|---------------------------------------------|-----7------7------7---------
B|-8-8-8-8-8-8-8-8-8-8-7-7-7-7-7-7-7-7-7-7-7-7-|---8------8------8-----------
G|-7-7-7-7-7-7-7-7-7-7-7-7-7-7-7-7-7-7-7-7-7-7-|-5------5------5-------------
D|-5-5-5-5-5-5-5-5-5-5-0-0-0-0-0-0-0-0-0-0-0-0-|
A|-5-5-5-5-5-5-5-5-5-5-0-0-0-0-0-0-0-0-0-0-0-0-|
D|-5-5-5-5-5-5-5-5-5-5-0-0-0-0-0-0-0-0-0-0-0-0-|

2:45
Chorus x2
(Rhythm): 
E|-0-0-0-0-0-0-0-0-0-0-0-0-0-0-0-0-0-0-0-0-0-0-0-0-0-0-0-0-|
B|-1-1-1-1-1-1-1-1-1-1-1-1-1-1-0-0-0-0-0-0-0-0-0-0-0-0-0-0-|
G|-0-0-0-0-0-0-0-0-0-0-0-0-0-0-0-0-0-0-0-0-0-0-0-0-0-0-0-0-|
D|-2-2-2-2-2-2-2-2-2-2-2-2-2-2-2-2-2-2-2-2-2-2-2-2-2-2-2-2-|
A|-3-3-3-3-3-3-3-3-3-3-3-3-3-3-2-2-2-2-2-2-2-2-2-2-2-2-2-2-|
D|-----------------------------2-2-2-2-2-2-2-2-2-2-2-2-2-2-|

E|-2-2---2-2-2---2-2-2---2-2-2---2-2-2---2-2-2---2-2-2---2-2-|
B|-3-3---3-3-3---3-3-3---3-3-3---3-3-3---3-3-3---3-3-3---3-3-|
G|-2-2---2-2-2---2-2-2---2-2-2---2-2-2---2-2-2---2-2-2---2-2-|
D|-4-4---4-4-4---4-4-4---4-4-4---4-4-4---4-4-4---4-4-4---4-4-|
A|-0-0---0-0-0---0-0-0---0-0-0---0-0-0---0-0-0---0-0-0---0-0-|
D|-0-0---0-0-0---0-0-0---0-0-0---0-0-0---0-0-0---0-0-0---0-0-|

(Lead fingerpick
   1.3.2                      
E|-----7------7------7------7------7------7------7------7--|
B|---8------8------8------8------8------8------8------8----|
G|-5------5------5------5----------------------------------|
D|---------------------------------------------------------|
A|-----------------------------7------7------7------7------|
D|---------------------------------------------------------|
Let ring……………………………………………………… ………………………………………………………………………
     3.2                        .3.1 
E|-----7------7------7------7------5------5------5------5--|
B|---8------8------8------8------8------8------8------8----|
G|---------------------------------------------------------|
D|---------------------------------------------------------|
A|---------------------------------------------------------|
D|-0------0------0------0------0------0------0------0------|
Let ring……………………………………………………… ………………………………………………………………………




EInterlude (Rhythm): 
E|-------------------------------------------------------------|
B|-------------------------------------------------------------|
G|-5-5---5-5-5---5-5-5---5-5-5---5-5-5---5-5-5---5-5-5---5-5-5-|
D|-5-5---5-5-5---5-5-5---5-5-5---5-5-5---5-5-5---5-5-5---5-5-5-|
A|-3-3---3-3-3---3-3-3---3-3-3---3-3-3---3-3-3---3-3-3---3-3-3-|
D|-------------------------------------------------------------|
PM. . . . . . . . . . . . . . . . . . . . . . . . . . . . . . 

E|-------------------------------------------------------------|
B|-------------------------------------------------------------|
G|-------------------------------------------------------------|
D|-0-0---0-0-0---0-0-0---0-0-0---0-0-0---0-0-0---0-0-0---0-0-0-|
A|-0-0---0-0-0---0-0-0---0-0-0---0-0-0---0-0-0---0-0-0---0-0-0-|
D|-0-0---0-0-0---0-0-0---0-0-0---0-0-0---0-0-0---0-0-0---0-0-0-|
PM. . . . . . . . . . . . . . . . . . . . . . . . . . . . . . .

3:04
Interlude Lead
E|---------------------------------------------------------------|
B|-----8-------8-------8-------8-------8-------8-------8-------8-|
G|-----11------11------11------11------11------11------11------11|
D|-1010--101010--101010--101010--101010--101010--101010--101010--|
A|---------------------------------------------------------------|
D|---------------------------------------------------------------|

E|-2h32p0--2h32p0--2h32p0--2h32p0--2h32p0--2h32p0--0-----------|
B|-------------------------------------------------------------|
G|-------------------------------------------------------------|
D|-------------------------------------------------------------|
A|-------------------------------------------------------------|
D|-------------------------------------------------------------|

Interlude(Lead)
E|--7-----------7b7.5r7-----------7-----7------7-----7-|-----4-----4-----4-----4--|
B|------------------------------8-----8------8-----8---|---8-----8-----8-----8----|
G|-----------------------------------------------------|--------------------------|
D|-----------------------------------------------------|--------------------------|
A|-----------------------------------------------------|--------------------------|
D|----------------------------0------0------0-----0----|-0------0-----0-----0-----|


Chorus x2
(Rhythm): 
E|-0-0-0-0-0-0-0-0-0-0-0-0-0-0-0-0-0-0-0-0-0-0-0-0-0-0-0-0-|
B|-1-1-1-1-1-1-1-1-1-1-1-1-1-1-0-0-0-0-0-0-0-0-0-0-0-0-0-0-|
G|-0-0-0-0-0-0-0-0-0-0-0-0-0-0-0-0-0-0-0-0-0-0-0-0-0-0-0-0-|
D|-2-2-2-2-2-2-2-2-2-2-2-2-2-2-2-2-2-2-2-2-2-2-2-2-2-2-2-2-|
A|-3-3-3-3-3-3-3-3-3-3-3-3-3-3-2-2-2-2-2-2-2-2-2-2-2-2-2-2-|
D|-----------------------------2-2-2-2-2-2-2-2-2-2-2-2-2-2-|

E|-2-2---2-2-2---2-2-2---2-2-2---2-2-2---2-2-2---2-2-2---2-2-|
B|-3-3---3-3-3---3-3-3---3-3-3---3-3-3---3-3-3---3-3-3---3-3-|
G|-2-2---2-2-2---2-2-2---2-2-2---2-2-2---2-2-2---2-2-2---2-2-|
D|-4-4---4-4-4---4-4-4---4-4-4---4-4-4---4-4-4---4-4-4---4-4-|
A|-0-0---0-0-0---0-0-0---0-0-0---0-0-0---0-0-0---0-0-0---0-0-|
D|-0-0---0-0-0---0-0-0---0-0-0---0-0-0---0-0-0---0-0-0---0-0-|

(Lead fingerpick
   1.3.2                      
E|-----7------7------10------7-----7------7------10-----7--|
B|---8------8------8------8------8------8------8------8----|
G|-5------5------5------5----------------------------------|
D|---------------------------------------------------------|
A|-----------------------------7------7------7------7------|
D|---------------------------------------------------------|
Let ring……………………………………………………… ………………………………………………………………………
     3.2                        .3.1 
E|-----7------7------10-----7------5------5------5------5--|
B|---8------8------8------8------8------8------8------8----|
G|---------------------------------------------------------|
D|---------------------------------------------------------|
A|---------------------------------------------------------|
D|-0------0------0------0------0------0------0------0------|
Let ring……………………………………………………… ………………………………………………………………………



outro
E|-----------7--------------7----------------7-------------5------|
B|------8------------8----------------8--------------8------------|
G|-5--------------------------------------------------------------|
D|----------------------------------------------------------------|
A|--------------7-------------------------------------------------|
D|--------------------------------0--------------0----------------|


Tap to rate this tab
 
# A B C D E F G H I J K L M N O P Q R S T U V W X Y Z