Song name
# A B C D E F G H I J K L M N O P Q R S T U V W X Y Z

Lostprophets - Its Not The End Of The World tab

Tab Written By: Josh Embling on 15/10/09

So yeah I recently got this single and it has to be said it's amazing haha :D. The 
is great as well have a look on Youtube if you haven't already got the single :) It's called 
Ricochet ;D

But Anyway the tab:

Drop D Tuning - Standard For Lostprophets
Or you can play it in drop Db, as on the interlude, in my opinion it sounds better when 
ring the last chord out as an open drop Db power chord, (the bottom three strings))

Guitar Part: Rhythm Guitar (Mike Lewis) I'll do Lee when I have time :)

PM - Palm Mute
~ - Ring Note/Chord
\ - Pick Slide
| - Stop Note/Chord

Intro (0:00-0:22):


E-----------------------------------------------------------------------------|
B-----------------------------------------------------------------------------|
G-------6-6-6-6-6-6-6-6---------------------8-8-8-8-8-8-8-8---6-6-6-6-6-6-6-6-|
D--X-X--6-6-6-6-6-6-6-6---6-6-6-6-6-6-6-6---8-8-8-8-8-8-8-8---6-6-6-6-6-6-6-6-|
A--X-X--4-4-4-4-4-4-4-4---6-6-6-6-6-6-6-6---6-6-6-6-6-6-6-6---4-4-4-4-4-4-4-4-|
D--X-X--------------------6-6-6-6-6-6-6-6-------------------------------------|

E-------------------------------------------------------------------------|
B-------------------------------------------------------------------------|
G-------6-6-6-6-6-6-6-6---------------------8-8-8-8-8-8-8-8--9-9-9--8-8-8-|
D-------6-6-6-6-6-6-6-6---6-6-6-6-6-6-6-6---8-8-8-8-8-8-8-8--9-9-9--8-8-8-|
A-------4-4-4-4-4-4-4-4---6-6-6-6-6-6-6-6---6-6-6-6-6-6-6-6--7-7-7--6-6-6-|
D-------------------------6-6-6-6-6-6-6-6---------------------------------|

E--------------------------------------------------------------------------|
B--------------------------------------------------------------------------|
G----6-6-6-6-6-6-6-6---------------------8-8-8-8-8-8-8-8---6-6-6-6-6-6-6-6-|
D----6-6-6-6-6-6-6-6---6-6-6-6-6-6-6-6---8-8-8-8-8-8-8-8---6-6-6-6-6-6-6-6-|
A----4-4-4-4-4-4-4-4---6-6-6-6-6-6-6-6---6-6-6-6-6-6-6-6---4-4-4-4-4-4-4-4-|
D----------------------6-6-6-6-6-6-6-6-------------------------------------|

E------------------------------------------------------------------|
B------------------------------------------------------------------|
G----6-6-6-6-6-6-6-6---------------------8-8-8-8-8-8-8-8--9-9--8-8-|
D----6-6-6-6-6-6-6-6---6-6-6-6-6-6-6-6---8-8-8-8-8-8-8-8--9-9--8-8-|
A----4-4-4-4-4-4-4-4---6-6-6-6-6-6-6-6---6-6-6-6-6-6-6-6--7-7--6-6-|
D----------------------6-6-6-6-6-6-6-6-----------------------------|


Verse 1 (0:33-0:42)

Down on your knees, queuing this disease....

E---------------------------------------------------------------------|
B---------------------------------------------------------------------|
G---------------------------------------------------------------------|
D---6-6-6-6-6-6-6-6-6-6-6-6-6-6-6-6---1-1-1-1-1-1-1-1-1-1-1-1-1-1-1-1-|
A---6-6-6-6-6-6-6-6-6-6-6-6-6-6-6-6---1-1-1-1-1-1-1-1-1-1-1-1-1-1-1-1-|
D---6-6-6-6-6-6-6-6-6-6-6-6-6-6-6-6---1-1-1-1-1-1-1-1-1-1-1-1-1-1-1-1-| X2

PM  ------------------------------------------------------------------

Pre-Chorus (0:43-0:53)

Behind these walls......

E---------------------------------------------------------------------|
B---------------------------------------------------------------------|
G-------------------------------------8-8-8-8-8-8-8-8-8-8-8-8-8-8-8-8-|
D---2-2-2-2-2-2-2-2-2-2-2-2-2-2-2-2---8-8-8-8-8-8-8-8-8-8-8-8-8-8-8-8-|
A---2-2-2-2-2-2-2-2-2-2-2-2-2-2-2-2---6-6-6-6-6-6-6-6-6-6-6-6-6-6-6-6-|
D---2-2-2-2-2-2-2-2-2-2-2-2-2-2-2-2-----------------------------------|

E---------------------------------------------------------------------------------------------|
B---------------------------------------------------------------------------------------------|
G---------------------------------------------------------------------------------------------|
D---2-2-2-2-2-2-2-2-2-2-2-2-2-2-2-2--11-11-11-11-11-11-11-11--12--12--12--12--12--12--12--12--|
A---2-2-2-2-2-2-2-2-2-2-2-2-2-2-2-2--9--9--9--9--9--9--9--9---10--10--10--10--10--10--10--10--|
D---2-2-2-2-2-2-2-2-2-2-2-2-2-2-2-2-----------------------------------------------------------|

Chorus (0:54-1:13):

E--------------------------------------------------------------------------|
B--------------------------------------------------------------------------|
G----6-6-6-6-6-6-6-6---------------------8-8-8-8-8-8-8-8---6-6-6-6-6-6-6-6-|
D----6-6-6-6-6-6-6-6---6-6-6-6-6-6-6-6---8-8-8-8-8-8-8-8---6-6-6-6-6-6-6-6-|
A----4-4-4-4-4-4-4-4---6-6-6-6-6-6-6-6---6-6-6-6-6-6-6-6---4-4-4-4-4-4-4-4-|
D----------------------6-6-6-6-6-6-6-6-------------------------------------|

E-------------------------------------------------------------------------|
B-------------------------------------------------------------------------|
G-------6-6-6-6-6-6-6-6---------------------8-8-8-8-8-8-8-8--9-9-9--8-8-8-|
D-------6-6-6-6-6-6-6-6---6-6-6-6-6-6-6-6---8-8-8-8-8-8-8-8--9-9-9--8-8-8-|
A-------4-4-4-4-4-4-4-4---6-6-6-6-6-6-6-6---6-6-6-6-6-6-6-6--7-7-7--6-6-6-|
D-------------------------6-6-6-6-6-6-6-6---------------------------------|

E--------------------------------------------------------------------------|
B--------------------------------------------------------------------------|
G----6-6-6-6-6-6-6-6---------------------8-8-8-8-8-8-8-8---6-6-6-6-6-6-6-6-|
D----6-6-6-6-6-6-6-6---6-6-6-6-6-6-6-6---8-8-8-8-8-8-8-8---6-6-6-6-6-6-6-6-|
A----4-4-4-4-4-4-4-4---6-6-6-6-6-6-6-6---6-6-6-6-6-6-6-6---4-4-4-4-4-4-4-4-|
D----------------------6-6-6-6-6-6-6-6-------------------------------------|

E------------------------------------------------------------------|
B------------------------------------------------------------------|
G----6-6-6-6-6-6-6-6---------------------8-8-8-8-8-8-8-8--9-9--8-8-|
D----6-6-6-6-6-6-6-6---6-6-6-6-6-6-6-6---8-8-8-8-8-8-8-8--9-9--8-8-|
A----4-4-4-4-4-4-4-4---6-6-6-6-6-6-6-6---6-6-6-6-6-6-6-6--7-7--6-6-|
D----------------------6-6-6-6-6-6-6-6-----------------------------|

Verse 2 (1:15-1:33):

E---------------------------------------------------------------------|
B---------------------------------------------------------------------|
G---------------------------------------------------------------------|
D---6-6-6-6-6-6-6-6-6-6-6-6-6-6-6-6---1-1-1-1-1-1-1-1-1-1-1-1-1-1-1-1-|
A---6-6-6-6-6-6-6-6-6-6-6-6-6-6-6-6---1-1-1-1-1-1-1-1-1-1-1-1-1-1-1-1-|
D---6-6-6-6-6-6-6-6-6-6-6-6-6-6-6-6---1-1-1-1-1-1-1-1-1-1-1-1-1-1-1-1-| X4

PM  ------------------------------------------------------------------

Pre-Chorus (1:35-1:45)

Behind these walls......

E---------------------------------------------------------------------|
B---------------------------------------------------------------------|
G-------------------------------------8-8-8-8-8-8-8-8-8-8-8-8-8-8-8-8-|
D---2-2-2-2-2-2-2-2-2-2-2-2-2-2-2-2---8-8-8-8-8-8-8-8-8-8-8-8-8-8-8-8-|
A---2-2-2-2-2-2-2-2-2-2-2-2-2-2-2-2---6-6-6-6-6-6-6-6-6-6-6-6-6-6-6-6-|
D---2-2-2-2-2-2-2-2-2-2-2-2-2-2-2-2-----------------------------------|

E---------------------------------------------------------------------------------------------|
B---------------------------------------------------------------------------------------------|
G---------------------------------------------------------------------------------------------|
D---2-2-2-2-2-2-2-2-2-2-2-2-2-2-2-2--11-11-11-11-11-11-11-11--12--12--12--12--12--12--12--12--|
A---2-2-2-2-2-2-2-2-2-2-2-2-2-2-2-2--9--9--9--9--9--9--9--9---10--10--10--10--10--10--10--10--|
D---2-2-2-2-2-2-2-2-2-2-2-2-2-2-2-2-----------------------------------------------------------|

Chorus (1:46-2:05):

E--------------------------------------------------------------------------|
B--------------------------------------------------------------------------|
G----6-6-6-6-6-6-6-6---------------------8-8-8-8-8-8-8-8---6-6-6-6-6-6-6-6-|
D----6-6-6-6-6-6-6-6---6-6-6-6-6-6-6-6---8-8-8-8-8-8-8-8---6-6-6-6-6-6-6-6-|
A----4-4-4-4-4-4-4-4---6-6-6-6-6-6-6-6---6-6-6-6-6-6-6-6---4-4-4-4-4-4-4-4-|
D----------------------6-6-6-6-6-6-6-6-------------------------------------|

E-------------------------------------------------------------------------|
B-------------------------------------------------------------------------|
G-------6-6-6-6-6-6-6-6---------------------8-8-8-8-8-8-8-8--9-9-9--8-8-8-|
D-------6-6-6-6-6-6-6-6---6-6-6-6-6-6-6-6---8-8-8-8-8-8-8-8--9-9-9--8-8-8-|
A-------4-4-4-4-4-4-4-4---6-6-6-6-6-6-6-6---6-6-6-6-6-6-6-6--7-7-7--6-6-6-|
D-------------------------6-6-6-6-6-6-6-6---------------------------------|

E--------------------------------------------------------------------------|
B--------------------------------------------------------------------------|
G----6-6-6-6-6-6-6-6---------------------8-8-8-8-8-8-8-8---6-6-6-6-6-6-6-6-|
D----6-6-6-6-6-6-6-6---6-6-6-6-6-6-6-6---8-8-8-8-8-8-8-8---6-6-6-6-6-6-6-6-|
A----4-4-4-4-4-4-4-4---6-6-6-6-6-6-6-6---6-6-6-6-6-6-6-6---4-4-4-4-4-4-4-4-|
D----------------------6-6-6-6-6-6-6-6-------------------------------------|

E------------------------------------------------------------------|
B------------------------------------------------------------------|
G----6-6-6-6-6-6-6-6---------------------8-8-8-8-8-8-8-8--9-9--8-8-|
D----6-6-6-6-6-6-6-6---6-6-6-6-6-6-6-6---8-8-8-8-8-8-8-8--9-9--8-8-|
A----4-4-4-4-4-4-4-4---6-6-6-6-6-6-6-6---6-6-6-6-6-6-6-6--7-7--6-6-|
D----------------------6-6-6-6-6-6-6-6-----------------------------|

Interlude (2:06-2:26):

E------------------------------------------------------------------------|
B------------------------------------------------------------------------|
G------------------------------------------------------------------------|
D------------------------------------------------------------------------|
A--------------------------------------6-6-4-6-7-7-6-4---6-6-4-6-7-7-6-4-|
D--6-6-4-6-7-7-6-4---6-6-4-6-7-7-6-4-------------------------------------| X2

E------------------------------------------------------------------|
B------------------------------------------------------------------|
G------------------------------------------------------------------|
D-----------------------------------------------------X-X--X--X-X--|
A-----------------------------------------------------X-X--X--X-X--|
D--4-4-2-4-5-5-4-2--7-7-5-7-8-8-7-5--6-6-4-6-7-7-6-4--X-X--X--X-X--|

E----------------------------------------------------------------------|
B----------------------------------------------------------------------|
G------------------------------------------------------6--6-6-6--6~----|
D------------------------------------------------------6--6-6-6--6~----|
A------------------------------------------------------4--4-4-4--4~----|
D--4-4-2-4-5-5-4-2--7-7-5-7-8-8-7-5--6-6-4-6-7-7-6-4-------------------|
                                                     PM----------------|

Bridge (2:38-2:57):

E---------------------------------|
B---------------------------------|
G---6~--8~---6|-------------------|
D---x---x----6|-------------------|
A---4~--6~---4|--\-\-\-\-\-\-\-\--|
D----------------\-\-\-\-\-\-\-\--|

E--------------------------------------------------------------------------|
B--------------------------------------------------------------------------|
G----6-6-6-6-6-6-6-6---------------------8-8-8-8-8-8-8-8---6-6-6-6-6-6-6-6-|
D----6-6-6-6-6-6-6-6---6-6-6-6-6-6-6-6---8-8-8-8-8-8-8-8---6-6-6-6-6-6-6-6-|
A----4-4-4-4-4-4-4-4---6-6-6-6-6-6-6-6---6-6-6-6-6-6-6-6---4-4-4-4-4-4-4-4-|
D----------------------6-6-6-6-6-6-6-6-------------------------------------|

E-------------------------------------------------------------------------|
B-------------------------------------------------------------------------|
G-------6-6-6-6-6-6-6-6---------------------8-8-8-8-8-8-8-8--9-9-9--8-8-8-|
D-------6-6-6-6-6-6-6-6---6-6-6-6-6-6-6-6---8-8-8-8-8-8-8-8--9-9-9--8-8-8-|
A-------4-4-4-4-4-4-4-4---6-6-6-6-6-6-6-6---6-6-6-6-6-6-6-6--7-7-7--6-6-6-|
D-------------------------6-6-6-6-6-6-6-6---------------------------------|

Chorus (2:58-3:46)

E--------------------------------------------------------------------------|
B--------------------------------------------------------------------------|
G----6-6-6-6-6-6-6-6---------------------8-8-8-8-8-8-8-8---6-6-6-6-6-6-6-6-|
D----6-6-6-6-6-6-6-6---6-6-6-6-6-6-6-6---8-8-8-8-8-8-8-8---6-6-6-6-6-6-6-6-|
A----4-4-4-4-4-4-4-4---6-6-6-6-6-6-6-6---6-6-6-6-6-6-6-6---4-4-4-4-4-4-4-4-|
D----------------------6-6-6-6-6-6-6-6-------------------------------------|

E-------------------------------------------------------------------------|
B-------------------------------------------------------------------------|
G-------6-6-6-6-6-6-6-6---------------------8-8-8-8-8-8-8-8--9-9-9--8-8-8-|
D-------6-6-6-6-6-6-6-6---6-6-6-6-6-6-6-6---8-8-8-8-8-8-8-8--9-9-9--8-8-8-|
A-------4-4-4-4-4-4-4-4---6-6-6-6-6-6-6-6---6-6-6-6-6-6-6-6--7-7-7--6-6-6-|
D-------------------------6-6-6-6-6-6-6-6---------------------------------|

E--------------------------------------------------------------------------|
B--------------------------------------------------------------------------|
G----6-6-6-6-6-6-6-6---------------------8-8-8-8-8-8-8-8---6-6-6-6-6-6-6-6-|
D----6-6-6-6-6-6-6-6---6-6-6-6-6-6-6-6---8-8-8-8-8-8-8-8---6-6-6-6-6-6-6-6-|
A----4-4-4-4-4-4-4-4---6-6-6-6-6-6-6-6---6-6-6-6-6-6-6-6---4-4-4-4-4-4-4-4-|
D----------------------6-6-6-6-6-6-6-6-------------------------------------|

E------------------------------------------------------------------|
B------------------------------------------------------------------|
G----6-6-6-6-6-6-6-6---------------------8-8-8-8-8-8-8-8--9-9--8-8-|
D----6-6-6-6-6-6-6-6---6-6-6-6-6-6-6-6---8-8-8-8-8-8-8-8--9-9--8-8-|
A----4-4-4-4-4-4-4-4---6-6-6-6-6-6-6-6---6-6-6-6-6-6-6-6--7-7--6-6-|
D----------------------6-6-6-6-6-6-6-6-----------------------------|

E--------------------------------------------------------------------------|
B--------------------------------------------------------------------------|
G----6-6-6-6-6-6-6-6---------------------8-8-8-8-8-8-8-8---6-6-6-6-6-6-6-6-|
D----6-6-6-6-6-6-6-6---6-6-6-6-6-6-6-6---8-8-8-8-8-8-8-8---6-6-6-6-6-6-6-6-|
A----4-4-4-4-4-4-4-4---6-6-6-6-6-6-6-6---6-6-6-6-6-6-6-6---4-4-4-4-4-4-4-4-|
D----------------------6-6-6-6-6-6-6-6-------------------------------------|

E-------------------------------------------------------------------------|
B-------------------------------------------------------------------------|
G-------6-6-6-6-6-6-6-6---------------------8-8-8-8-8-8-8-8--9-9-9--8-8-8-|
D-------6-6-6-6-6-6-6-6---6-6-6-6-6-6-6-6---8-8-8-8-8-8-8-8--9-9-9--8-8-8-|
A-------4-4-4-4-4-4-4-4---6-6-6-6-6-6-6-6---6-6-6-6-6-6-6-6--7-7-7--6-6-6-|
D-------------------------6-6-6-6-6-6-6-6---------------------------------|

E--------------------------------------------------------------------------|
B--------------------------------------------------------------------------|
G----6-6-6-6-6-6-6-6---------------------8-8-8-8-8-8-8-8---6-6-6-6-6-6-6-6-|
D----6-6-6-6-6-6-6-6---6-6-6-6-6-6-6-6---8-8-8-8-8-8-8-8---6-6-6-6-6-6-6-6-|
A----4-4-4-4-4-4-4-4---6-6-6-6-6-6-6-6---6-6-6-6-6-6-6-6---4-4-4-4-4-4-4-4-|
D----------------------6-6-6-6-6-6-6-6-------------------------------------|

E----------------------------------------------------------------------------|
B----------------------------------------------------------------------------|
G----6-6-6-6-6-6-6-6---------------------8-8-8-8-8-8-8-8--9-9--8-8----6~--8~-|
D----6-6-6-6-6-6-6-6---6-6-6-6-6-6-6-6---8-8-8-8-8-8-8-8--9-9--8-8----6~--6~-|
A----4-4-4-4-4-4-4-4---6-6-6-6-6-6-6-6---6-6-6-6-6-6-6-6--7-7--6-6----4~--6~-|
D----------------------6-6-6-6-6-6-6-6---------------------------------------|


Hope this help quite a bit :) if you have any queries, or you think i've done a bit 
then please say and contact me on josh_emb@hotmail.co.uk

Thanks :)
Tap to rate this tab
 
# A B C D E F G H I J K L M N O P Q R S T U V W X Y Z