Song name
# A B C D E F G H I J K L M N O P Q R S T U V W X Y Z

Lostprophets - Streets Of Nowhere tab

-------------------------------------------------------------------------------
			     STREETS OF NOWHERE - Lostprophets
-------------------------------------------------------------------------------
Tabbed by: alliwant
Email: stott_vivi@lycos.com

Off The Betrayed record. Sounds pretty good to me give or take a few bits. Any
corrections, I'll be happy to hear and adjust it accordingly :)

Tuning: E Standard

Intro
e|-------------------------------------------------------------------------------|
B|-------------------------------------------------------------------------------|
G|-------------------------------------------------------------------------------|
D|--------------------------7------------------7-------------------7-------------|
A|-------------------------------------------------------------------------------|
E|-5-5-5--55--5--5-5--5-5-5---55-5--5-5--5-5-5---55--5--5-5--5-5-5--55-5--5-5--5-|


Verse
e|---------------------------------------------------------------------------------|
B|---------------------------------------------------------------------------------|
G|---------------------------------------------6-----------6--------4----------4---|
D|-----7-------------------7-------------------6-----------6--------4----------4---|x2
A|---------------------------------------------------------------------------------|
E|-5-5----55--5--5-5-5-5-5----55--5--5-5-5-4-4----44--4--4----4-2-2----22--2--2--2-|

Pre-Chorus Lead Line
   F#m               A                C#m                 B(onrepeat,nochord)
e|-----9--------9--------9--------9-------------------------------------------|
B|---7----7---7----7---7----7---7---7---7-10--7---7-10--7---7-10--7---7-10--7-|
G|-9--------9--------9--------9-------9---------9---------9---------9---------|
D|----------------------------------------------------------------------------|x2
A|----------------------------------------------------------------------------|
E|----------------------------------------------------------------------------|

Chorus
e|-------------------------------|
B|----------------4-4-4----------|
G|-6-6-6-1--1-1-1-4-4-4-3--3-3-3-|
D|-7-7-7-2--2-2-2-4-4-4-4--4-4-4-| x4
A|-7-7-7-2--2-2-2-2-2-2-4--4-4-4-|
E|-5-5-5-0--0-0-0-------2--2-2-2-|

Intro (play more with the A on the D string (7th fret) than in the intro. Listen and 
understand what I mean)

Verse

Chorus

Bridge (Piano line - 2.07-2.30)
e|-------------------|
B|-------------------|
G|-------------------|
D|-4-4-4--4-4-4-44-2-| x10
A|-----------------2-|
E|-------------------|

Pre-Chorus

2.48 - Listen for rhythm
e|---------------------------------|
B|-5-5-5--5------7-----------------|
G|-6-6-6--6-9-9--9--9-9-9--8-8-8-8-|
D|-7-7-7--7-9-9--9--9-9-9--9-9-9-9-| x2
A|-7-7-7--7-7-7--7--9-9-9--9-9-9-9-|
E|------------------7-7-7--7-7-7-7-|

Chorus

Intro (played the way described after the 1st chorus


Order:
Intro
Verse
Pre-Chorus
Chorus
Intro
Verse
Pre-Chorus
Chorus
Bridge
Pre-Chorus
2.48
Chorus
Intro
End (slide down from the A note (5th fret) on the E string
Tap to rate this tab
# A B C D E F G H I J K L M N O P Q R S T U V W X Y Z