Song name
# A B C D E F G H I J K L M N O P Q R S T U V W X Y Z

Lostprophets - Next Stop Atrocity tab

Lost Prophets - Next Stop Atrocity


Intro/Verse

---------------------------------------------   ----------------------|
---------------------------------------------   ----------------------|
---------------------------------------------   ----------------------|
----7-7-6--6-6-6--6-6-6--6-6-6--------------- X3--9-9-7-777-9-11-11---| X1
----7-7-6--6-6-6--6-6-6--6-6-6---------------   --9-9-7-777-9-11-11---|
----7-7-6--6-6-6--6-6-6--6-6-6---------------   --9-9-7-777-9-11-11---|
           * *    * *    * *

Chorus ( not exact timing )

---------------------------------------------------|
---------------------------------------------------|
---------------------------------------------------|
--666666666666-4444444444-222222222222-4444444444--|
--666666666666-4444444444-222222222222-4444444444--|
--666666666666-4444444444-222222222222-4444444444--|


-----------------------------------------------------------|
-----------------------------------------------------------|
-----------------------------------------111---1/333-------|
--666666666666-4444444444-222222222222-2-----4-------------|
--666666666666-4444444444-222222222222-2-----4-------------|
--666666666666-4444444444-222222222222-2-----4-------------|

Reapeat twice apart from 2nd verse only play

------------|
------------|
------------|
-9-9-7-777--| the 1st time then normal 2nd time
-9-9-7-777--|
-9-9-7-777--|

Heavy bit

------------------------------------------------------|
------------------------------------------------------|
--------------------------------------111------1/333--|
--4-6-6-6-9-6-6-6-4-6-6-6-11-6-6-6--2--------4--------|  x 3
--4-6-6-6-9-6-6-6-4-6-6-6-11-6-6-6--2--------4--------|
--4-6-6-6-9-6-6-6-4-6-6-6-11-6-6-6--2--------4--------|

--------------------------------------|
--------------------------------------|
--------------------------------------|
--------------------------------------|  x 2
--------------------------------------|
--4-6-6-6-9-6-6-6-4-6-6-6-11-6-6-6----|

--------------------------------------|
--------------------------------------|
--------------------------------------|
--4-6-6-6-9-6-6-6-4-6-6-6-11-6-6-6----|  x 4
--4-6-6-6-9-6-6-6-4-6-6-6-11-6-6-6----|
--4-6-6-6-9-6-6-6-4-6-6-6-11-6-6-6----|


--------------------------------------|
--------------------------------------|
--------------------------------------|
--666-6-666-6-666-6-666-6-------------|  x 2
--666-6-666-6-666-6-666-6-------------|
--666-6-666-6-666-6-666-6-------------|


--------------------------------------|
--------------------------------------|
--------------------------------------|
--------------------------------------|  x 4
--4-6---------4-6-----4---------------|
------4-6-9-6-----4-6---6-4-6-9-6-----|


-------------------------------------------------------------|
-------------------------------------------------------------|
-------------------------------------------------------------|
--666-6-666-6-666-6-666-6-666-6-666-6-666-6-666-6------------|
--666-6-666-6-666-6-666-6-666-6-666-6-666-6-666-6-456--------|
--666-6-666-6-666-6-666-6-666-6-666-6-666-6-666-6------------|

---------------------------------------------------------------------|
---------------------------------------------------------------------|
---------------------------------------------------------------------|
--666-6-666-6-666-6-666-6-666-6-666-6-666-6-666-6-6-6666-6-6666-6----|
--666-6-666-6-666-6-666-6-666-6-666-6-666-6-666-6-6-6666-6-6666-6----|
--666-6-666-6-666-6-666-6-666-6-666-6-666-6-666-6-6-6666-6-6666-6----|


Not sure about this, it will sound ok but it sounds like one chord with the top 
note changed to me,
i'll work on it

-----------------------------------------------------------------------------|
-----------------------------------------------------------------------------|
-----------------------------------------------------------------------------|
--6-------------------4------------------2----------------------4------------|
--6-------------------4------------------2----------------------4------------|
--6-------------------4------------------2----------------------4------------|

   Get in the car..   Keep it running..  We've got velocity..    Next stop..


---------------------------------------------------|
---------------------------------------------------|
---------------------------------------------------|
--666666666666-4444444444-222222222222-4444444444--|
--666666666666-4444444444-222222222222-4444444444--|
--666666666666-4444444444-222222222222-4444444444--|


--------------------------------------------------------------|
--------------------------------------------------------------|
------------------------------------------111-----1/333-------|
--666666666666-4444444444-222222222222--2------4--------------|
--666666666666-4444444444-222222222222--2------4--------------|
--666666666666-4444444444-222222222222--2------4--------------|


------------------------------------------------------|
------------------------------------------------------|
--------------------------------------111------1/333--|
--4-6-6-6-9-6-6-6-4-6-6-6-11-6-6-6--2--------4--------|  x 3
--4-6-6-6-9-6-6-6-4-6-6-6-11-6-6-6--2--------4--------|
--4-6-6-6-9-6-6-6-4-6-6-6-11-6-6-6--2--------4--------|


-------------------------------------------------------------|
-------------------------------------------------------------|
-------------------------------------------------------------|
--666-6-666-6-666-6-666-6-666-6-666-6-666-6-666-6------------|
--666-6-666-6-666-6-666-6-666-6-666-6-666-6-666-6------------|
--666-6-666-6-666-6-666-6-666-6-666-6-666-6-666-6------------|
Tap to rate this tab
# A B C D E F G H I J K L M N O P Q R S T U V W X Y Z