Song name
# A B C D E F G H I J K L M N O P Q R S T U V W X Y Z

Lostprophets - For Hes A Jolly Good Felon tab

Great song on the new album!

Drop D Tuning

Intro & Verse (x12):

E---------X-----------------------------------------------------------|
B--9-9-9--X--9---11-11------------------------------------------------|
G--6-6-6--X--6---8--8---8--8-8----------------------------------------|
D-----------------------6--6-6----------------------------------------|
A---------------------------------------------------------------------|
D---------------------------------------------------------------------|

Pre Chorus:

E---------------------------------------------------------------------|
B---------------------------------------------------------------------|
G---------------------------------------------------------------------|
D---------------------------------------------------------------------|
A--2-2-2-2-2-2-2-2--4-4-4-4--6-6-6-6----------------------------------|
D---------------------------------------------------------------------|

Chorus (x2):

E---------------------------------------------------------------------|
B---------------------------------------------------------------------|
G------------------------------------4-4-4-4-4-4-4-4------------------|
D--6-6-6-6-6-6-6-6--2-2-2-2-2-2-2-2--4-4-4-4-4-4-4-4--1-1-1-1-1-1-1-1-|
A--6-6-6-6-6-6-6-6--2-2-2-2-2-2-2-2--2-2-2-2-2-2-2-2--1-1-1-1-1-1-1-1-|
D--6-6-6-6-6-6-6-6--2-2-2-2-2-2-2-2-------------------1-1-1-1-1-1-1-1-|

Pre-Verse:

E---------X-----------------------------X-----------------------------|
B--9-9-9--X--9---11-11-----------9-9-9--X--11-11-11-11----------------|
G--6-6-6--X--6---8--8---8--8-8---6-6-6--X--8--8--8--8-----------------|
D-----------------------6--6-6----------------------------------------|
A---------------------------------------------------------------------|
D---------------------------------------------------------------------|

Verse 2 (x8):

E---------X-----------------------------------------------------------|
B--9-9-9--X--9---11-11------------------------------------------------|
G--6-6-6--X--6---8--8---8--8-8----------------------------------------|
D-----------------------6--6-6----------------------------------------|
A---------------------------------------------------------------------|
D---------------------------------------------------------------------|

Pre Chorus:

E---------------------------------------------------------------------|
B---------------------------------------------------------------------|
G---------------------------------------------------------------------|
D---------------------------------------------------------------------|
A--2-2-2-2-2-2-2-2--4-4-4-4--6-6-6-6----------------------------------|
D---------------------------------------------------------------------|

Chorus:

Part 1 (x2):
E---------------------------------------------------------------------|
B---------------------------------------------------------------------|
G------------------------------------4-4-4-4-4-4-4-4------------------|
D--6-6-6-6-6-6-6-6--2-2-2-2-2-2-2-2--4-4-4-4-4-4-4-4--1-1-1-1-1-1-1-1-|
A--6-6-6-6-6-6-6-6--2-2-2-2-2-2-2-2--2-2-2-2-2-2-2-2--1-1-1-1-1-1-1-1-|
D--6-6-6-6-6-6-6-6--2-2-2-2-2-2-2-2-------------------1-1-1-1-1-1-1-1-|

Part 2 (x2):

E---------------------------------------------------------------------|
B---------------------------------------------------------------------|
G---------------------------------------------------------------------|
D--8-8-8-8-8-8-8-8--6-6-6-6-6-6-6-6--4-4-4-4-4-4-4-4--1-1-1-1-1-1-1-1-|
A---------------------------------------------------------------------|
D---------------------------------------------------------------------|

I WILL ADD THE BRIDGE SOON, I JUST CAN'T WORK IT OUT AT THE MOMENT.

Interlude:

E---------X-----------------------------------------------------------|
B--9-9-9--X--9---11-11------------------------------------------------|
G--6-6-6--X--6---8--8---8--8-8----------------------------------------|
D-----------------------6--6-6----------------------------------------|
A---------------------------------------------------------------------|
D---------------------------------------------------------------------|

E---------X-----------------------------X-----------------------------|
B--9-9-9--X--9---11-11-----------9-9-9--X--11-11-11-11----------------|
G--6-6-6--X--6---8--8---8--8-8---6-6-6--X--8--8--8--8-----------------|
D-----------------------6--6-6----------------------------------------|
A---------------------------------------------------------------------|
D---------------------------------------------------------------------|

Chorus:

Part 1 (x2):
E---------------------------------------------------------------------|
B---------------------------------------------------------------------|
G------------------------------------4-4-4-4-4-4-4-4------------------|
D--6-6-6-6-6-6-6-6--2-2-2-2-2-2-2-2--4-4-4-4-4-4-4-4--1-1-1-1-1-1-1-1-|
A--6-6-6-6-6-6-6-6--2-2-2-2-2-2-2-2--2-2-2-2-2-2-2-2--1-1-1-1-1-1-1-1-|
D--6-6-6-6-6-6-6-6--2-2-2-2-2-2-2-2-------------------1-1-1-1-1-1-1-1-|

Part 2 (x2):

E---------------------------------------------------------------------|
B---------------------------------------------------------------------|
G---------------------------------------------------------------------|
D--8-8-8-8-8-8-8-8--6-6-6-6-6-6-6-6--4-4-4-4-4-4-4-4--1-1-1-1-1-1-1-1-|
A---------------------------------------------------------------------|
D---------------------------------------------------------------------|
Tap to rate this tab
# A B C D E F G H I J K L M N O P Q R S T U V W X Y Z