Song name
# A B C D E F G H I J K L M N O P Q R S T U V W X Y Z

Lostprophets - Next Stop Atrocity tab

Tabbed by: Lostprophets$$$
Tuning: Drop D

Bought the album the morning it came out! Absolutely in love with it (as I have been 
every one), and this is by far the most anthemic song on it, so I thought I'd tab it out! 
done by ear so please don't be too harsh if it's wrong in places, though I'm 
pretty sure it's 100% right :)

If you don't understand the timing of different parts then check my cover video on 
for help, though I've already included lyrics to help make sure you're at the right part of 
song.

www.youtube.com/blessthebreakdowns

In case you get stuck.


. = palm mute
h = hammer on
p = pull off
~ = let ring


FIRST VERSE (PLAY WHOLE THING TWICE)

e|-----------------------------------------------|
B|-----------------------------------------------|
G|-----------------------------------------------|
D|--7--7-----6---6---6---6-6---------------------| X 3
A|--7--7-----6---6---6---6-6---------------------|
D|--7--7-----6---6---6---6-6---------------------|

e|-----------------------------------------------|
B|-----------------------------------------------|
G|-----------------------------------------------|
D|--9--9-----7---7-7-----9--11-11---11-11--------| X 1
A|--9--9-----7---7-7-----9--11-11---11-11--------|
D|--9--9-----7---7-7-----9--11-11---11-11--------|

CHORUS (Get in the car, get in the car...)

e|---------------------------------------------------------------------------|
B|---------------------------------------------------------------------------|
G|---------------------------------------------------------------------------|
D|--6--6---6-6-6---6-6-6---6-6-6-----4--4---4-4-4---4-4-4---4-4-4------------|
A|--6--6---6-6-6---6-6-6---6-6-6-----4--4---4-4-4---4-4-4---4-4-4------------|
D|--6--6---6-6-6---6-6-6---6-6-6-----4--4---4-4-4---4-4-4---4-4-4------------|

e|---------------------------------------------------------------------------|
B|---------------------------------------------------------------------------|
G|---------------------------------------------------------------------------|
D|--2--2---2-2-2---2-2-2---2-2-2-----4--4---4-4-4---4-4-4---4-4-4------------|
A|--2--2---2-2-2---2-2-2---2-2-2-----4--4---4-4-4---4-4-4---4-4-4------------|
D|--2--2---2-2-2---2-2-2---2-2-2-----4--4---4-4-4---4-4-4---4-4-4------------|

e|---------------------------------------------------------------------------|
B|---------------------------------------------------------------------------|
G|---------------------------------------------------------------------------|
D|--6--6---6-6-6---6-6-6---6-6-6-----4--4---4-4-4---4-4-4---4-4-4------------|
A|--6--6---6-6-6---6-6-6---6-6-6-----4--4---4-4-4---4-4-4---4-4-4------------|
D|--6--6---6-6-6---6-6-6---6-6-6-----4--4---4-4-4---4-4-4---4-4-4------------|

e|---------------------------------------------------------------------------|
B|---------------------------------------------------------------------------|
G|---------------------------------------------------------------------------|
D|--2--2---2-2-2---2-2-2---2-2-2------------2---------------4----------------|
A|--2--2---2-2-2---2-2-2---2-2-2------------2---------------4----------------|
D|--2--2---2-2-2---2-2-2---2-2-2------------2---------------4----------------|

Pre-Verse

e|-----------------------------------------------|
B|-----------------------------------------------|
G|-----------------------------------------------|
D|--7--7-----6-----------------------------------| X 1
A|--7--7-----6-----------------------------------|
D|--7--7-----6-----------------------------------|

SECOND VERSE (On the phone is a dial tone, on the T.V just ghosts...)

e|-----------------------------------------------|
B|-----------------------------------------------|
G|-----------------------------------------------|
D|--7--7-----6---6---6---6-6---------------------| X 3
A|--7--7-----6---6---6---6-6---------------------|
D|--7--7-----6---6---6---6-6---------------------|

e|-----------------------------------------------|
B|-----------------------------------------------|
G|-----------------------------------------------|
D|--9--9-----7-----------------------------------| X 1
A|--9--9-----7-----------------------------------|
D|--9--9-----7-----------------------------------|

(All the voices in chorus, they all sing out of key...)
e|-----------------------------------------------|
B|-----------------------------------------------|
G|-----------------------------------------------|
D|--7--7-----6---6-6-6-6~---6-6-6-6~---6-6-6-6~--| X 3
A|--7--7-----6---6-6-6-6~---6-6-6-6~---6-6-6-6~--|
D|--7--7-----6---6-6-6-6~---6-6-6-6~---6-6-6-6~--|
                 . . .      . . .      . . .

e|----------------------------------------------|
B|----------------------------------------------|
G|----------------------------------------------|
D|--9--9-----7-----------9--11-11---11-11-------| X 1
A|--9--9-----7-----------9--11-11---11-11-------|
D|--9--9-----7-----------9--11-11---11-11-------|

SECOND CHORUS (Get in the car, get in the car...)

e|---------------------------------------------------------------------------|
B|---------------------------------------------------------------------------|
G|---------------------------------------------------------------------------|
D|--6--6---6-6-6---6-6-6---6-6-6-----4--4---4-4-4---4-4-4---4-4-4------------|
A|--6--6---6-6-6---6-6-6---6-6-6-----4--4---4-4-4---4-4-4---4-4-4------------|
D|--6--6---6-6-6---6-6-6---6-6-6-----4--4---4-4-4---4-4-4---4-4-4------------|

e|---------------------------------------------------------------------------|
B|---------------------------------------------------------------------------|
G|---------------------------------------------------------------------------|
D|--2--2---2-2-2---2-2-2---2-2-2-----4--4---4-4-4---4-4-4---4-4-4------------|
A|--2--2---2-2-2---2-2-2---2-2-2-----4--4---4-4-4---4-4-4---4-4-4------------|
D|--2--2---2-2-2---2-2-2---2-2-2-----4--4---4-4-4---4-4-4---4-4-4------------|

e|---------------------------------------------------------------------------|
B|---------------------------------------------------------------------------|
G|---------------------------------------------------------------------------|
D|--6--6---6-6-6---6-6-6---6-6-6-----4--4---4-4-4---4-4-4---4-4-4------------|
A|--6--6---6-6-6---6-6-6---6-6-6-----4--4---4-4-4---4-4-4---4-4-4------------|
D|--6--6---6-6-6---6-6-6---6-6-6-----4--4---4-4-4---4-4-4---4-4-4------------|

e|---------------------------------------------------------------------------|
B|---------------------------------------------------------------------------|
G|---------------------------------------------------------------------------|
D|--2--2---2-2-2---2-2-2---2-2-2------------2---------------4----------------|
A|--2--2---2-2-2---2-2-2---2-2-2------------2---------------4----------------|
D|--2--2---2-2-2---2-2-2---2-2-2------------2---------------4----------------|

POST-CHORUS (I wanna be atrocity! Atrocity, she loves me...)

e|---------------------------------------------------------------------------|
B|---------------------------------------------------------------------------|
G|---------------------------------------------------------------------------|
D|--------------------------------------------------2---------4--------------| X 4
A|--------------------------------4-----------------2---------4--------------|
D|---4--6-6-6--9--6-6-6--4--6-6-6---6-6-6-----------2---------4--------------|

BRIDGE

e|-----------------------------------------------|
B|-----------------------------------------------|
G|-----------------------------------------------|
D|-----------------------------------------------| X 2 ON CLEAN
A|--------------------------------4--------------|
D|---4--6-6-6--9--6-6-6--4--6-6-6---6-6-6--------|

(Scream!)
e|-----------------------------------------------|
B|-----------------------------------------------|
G|-----------------------------------------------|
D|-----------------------------------------------| X 4 BACK TO DISTORTION
A|--------------------------------4--------------|
D|---4--6-6-6--9--6-6-6--4--6-6-6---6-6-6--------|

BREAKDOWN

e|-----------------------------------------------|
B|-----------------------------------------------|
G|-----------------------------------------------|
D|---6-6-6-6~---6-6-6-6~---6-6-6-6~---6-6-6-6~---| X 2
A|---6-6-6-6~---6-6-6-6~---6-6-6-6~---6-6-6-6~---|
D|---6-6-6-6~---6-6-6-6~---6-6-6-6~---6-6-6-6~---|
     . . .      . . .      . . .      . . .

MID-BREAKDOWN RIFF

e|-----------------------------------------------|
B|-----------------------------------------------|
G|-----------------------------------------------|
D|-----------------------------------------------| X 4
A|---4h6-------------4h6-----------------2h4-----|
D|-------4h6-9p6---------4h6-9p6-----4h6---------|

BREAKDOWN AGAIN

e|-----------------------------------------------|
B|-----------------------------------------------|
G|-----------------------------------------------|
D|---6-6-6-6~---6-6-6-6~---6-6-6-6~---6-6-6-6~---|
A|---6-6-6-6~---6-6-6-6~---6-6-6-6~---6-6-6-6~---|
D|---6-6-6-6~---6-6-6-6~---6-6-6-6~---6-6-6-6~---|
     . . .      . . .      . . .      . . .

e|----------------------------------------------------|
B|----------------------------------------------------|
G|----------------------------------------------------|
D|---6-6-6-6~---6-6-6-6~---6-6-6-6~---6-6-6-----------|
A|---6-6-6-6~---6-6-6-6~---6-6-6-6~---6-6-6---2h4h6---|
D|---6-6-6-6~---6-6-6-6~---6-6-6-6~---6-6-6-----------|
     . . .      . . .      . . .      . . .

e|-----------------------------------------------|
B|-----------------------------------------------|
G|-----------------------------------------------|
D|---6-6-6-6~---6-6-6-6~---6-6-6-6~---6-6-6-6~---|
A|---6-6-6-6~---6-6-6-6~---6-6-6-6~---6-6-6-6~---|
D|---6-6-6-6~---6-6-6-6~---6-6-6-6~---6-6-6-6~---|
     . . .      . . .      . . .      . . .

e|-----------------------------------------------|
B|-----------------------------------------------|
G|-----------------------------------------------|
D|---6-6-6-6~---6-6-6-6~---6-6-6-666--6-6-6~~~---|
A|---6-6-6-6~---6-6-6-6~---6-6-6-666--6-6-6~~~---|
D|---6-6-6-6~---6-6-6-6~---6-6-6-666--6-6-6~~~---|
     . . .      . . .      . . . ...  . .

POST-BREAKDOWN (Get in the car, get in the car...)

e|-----------------------------------------------|
B|-----------------------------------------------|
G|-----------------------------------------------|
D|---6~-----4~-----2~-----4~---------------------| ON CLEAN
A|---6~-----4~-----2~-----4~---------------------|
D|---6~-----4~-----2~-----4~---------------------|

FINAL CHORUS (Get in the car, get in the car...)

e|---------------------------------------------------------------------------|
B|---------------------------------------------------------------------------|
G|---------------------------------------------------------------------------|
D|--6--6---6-6-6---6-6-6---6-6-6-----4--4---4-4-4---4-4-4---4-4-4------------|
A|--6--6---6-6-6---6-6-6---6-6-6-----4--4---4-4-4---4-4-4---4-4-4------------|
D|--6--6---6-6-6---6-6-6---6-6-6-----4--4---4-4-4---4-4-4---4-4-4------------|

e|---------------------------------------------------------------------------|
B|---------------------------------------------------------------------------|
G|---------------------------------------------------------------------------|
D|--2--2---2-2-2---2-2-2---2-2-2-----4--4---4-4-4---4-4-4---4-4-4------------|
A|--2--2---2-2-2---2-2-2---2-2-2-----4--4---4-4-4---4-4-4---4-4-4------------|
D|--2--2---2-2-2---2-2-2---2-2-2-----4--4---4-4-4---4-4-4---4-4-4------------|

e|---------------------------------------------------------------------------|
B|---------------------------------------------------------------------------|
G|---------------------------------------------------------------------------|
D|--6--6---6-6-6---6-6-6---6-6-6-----4--4---4-4-4---4-4-4---4-4-4------------|
A|--6--6---6-6-6---6-6-6---6-6-6-----4--4---4-4-4---4-4-4---4-4-4------------|
D|--6--6---6-6-6---6-6-6---6-6-6-----4--4---4-4-4---4-4-4---4-4-4------------|

e|---------------------------------------------------------------------------|
B|---------------------------------------------------------------------------|
G|---------------------------------------------------------------------------|
D|--2--2---2-2-2---2-2-2---2-2-2------------2---------------4----------------|
A|--2--2---2-2-2---2-2-2---2-2-2------------2---------------4----------------|
D|--2--2---2-2-2---2-2-2---2-2-2------------2---------------4----------------|

POST-CHORUS (I wanna be atrocity! Atrocity, she loves me...)

e|---------------------------------------------------------------------------|
B|---------------------------------------------------------------------------|
G|---------------------------------------------------------------------------|
D|--------------------------------------------------2---------4--------------| X 3
A|--------------------------------4-----------------2---------4--------------|
D|---4--6-6-6--9--6-6-6--4--6-6-6---6-6-6-----------2---------4--------------|

e|---------------------------------------------------------------------------|
B|---------------------------------------------------------------------------|
G|---------------------------------------------------------------------------|
D|--------------------------------------------------2~~~------4~~~-----------|
A|--------------------------------4-----------------2~~~------4~~~-----------|
D|---4--6-6-6--9--6-6-6--4--6-6-6---6-6-6-----------2~~~------4~~~-----------|
                                                  (She fucking loves me!)

FINAL BREAKDOWN

e|-----------------------------------------------|
B|-----------------------------------------------|
G|-----------------------------------------------|
D|---6-6-6-6~---6-6-6-6~---6-6-6-6~---6-6-6-6~---|
A|---6-6-6-6~---6-6-6-6~---6-6-6-6~---6-6-6-6~---|
D|---6-6-6-6~---6-6-6-6~---6-6-6-6~---6-6-6-6~---|
     . . .      . . .      . . .      . . .

e|----------------------------------------------------|
B|----------------------------------------------------|
G|----------------------------------------------------|
D|---6-6-6-6~---6-6-6-6~---6-6-6-6~---6-6-6-----------|
A|---6-6-6-6~---6-6-6-6~---6-6-6-6~---6-6-6---2h4h6---|
D|---6-6-6-6~---6-6-6-6~---6-6-6-6~---6-6-6-----------|
     . . .      . . .      . . .      . . .

e|-----------------------------------------------|
B|-----------------------------------------------|
G|-----------------------------------------------|
D|---6-6-6-6~---6-6-6-6~---6-6-6-6~---6-6-6-6~---|
A|---6-6-6-6~---6-6-6-6~---6-6-6-6~---6-6-6-6~---|
D|---6-6-6-6~---6-6-6-6~---6-6-6-6~---6-6-6-6~---|
     . . .      . . .      . . .      . . .

e|-----------------------------------------------|
B|-----------------------------------------------|
G|-----------------------------------------------|
D|---6-6-6-6~---6-6-6-6~---6-6-6-6~---6-6-6-6----|
A|---6-6-6-6~---6-6-6-6~---6-6-6-6~---6-6-6-6----|
D|---6-6-6-6~---6-6-6-6~---6-6-6-6~---6-6-6-6----|
     . . .      . . .      . . .      . . .
Tap to rate this tab
# A B C D E F G H I J K L M N O P Q R S T U V W X Y Z