Song name
# A B C D E F G H I J K L M N O P Q R S T U V W X Y Z

Lostprophets - Where We Belong tab

-----------------------------------------------------------------------------
			     Where we Belong - Lostprophets
-----------------------------------------------------------------------------
Noticed nobody had tabbed this great song yet, so thought i may aswell

Tabbed by: Aaron Bartley
Email: aaron__bartley@hotmail.co.uk

Tuning: D A D G B E


Intro 0.00 - 0.34
Not the exact number of times you play this note but its easy rhythm so just play for 
34 seconds
e|-------------------------------------------------------------------|
B|-------------------------------------------------------------------|
G|6-6-6-6-6-6-6-6-6-6-6-6-6-6-6-6-6-6-6-6-6-6-6-6-6-6-6-6-6-6-6-6-6-6|
D|-------------------------------------------------------------------|
A|-------------------------------------------------------------------|
D|-------------------------------------------------------------------|

Other guitar starts when drums kick in at 0.20 and plays these chords from 0.20 - 0.34
All slightly palm-muted, Listen to the song for timing, easy to hear
e|-------------------------------------------------------------------|
B|-------------------------------------------------------------------|
G|-------------------------------------------------------------------|
D|11----6----8----4----11----13----8----6----------------------------|
A|11----6----8----4----11----13----8----6----------------------------|
D|11----6----8----4----11----13----8----6----------------------------|


Break 0.34 - 0.41
e|------------------------------------------------------------------------|
B|------------------------------------------------------------------------|
G|------------------------------------------------------------------------|
D|11-11-11-11-11-11-11-11-6-6-6-6-6-6-6-6-4-4-4-4-4-4-4-4-4-4-4-4-4-4-4-4-|
A|11-11-11-11-11-11-11-11-6-6-6-6-6-6-6-6-4-4-4-4-4-4-4-4-4-4-4-4-4-4-4-4-|
D|11-11-11-11-11-11-11-11-6-6-6-6-6-6-6-6-4-4-4-4-4-4-4-4-4-4-4-4-4-4-4-4-|


Then at 0.41 - 0.45 just before the verse he does something like this:
e|---------------------------------------------------------------|
B|---------------------------------------------------------------|
G|-X-6-X-6-X-6-X-6-X-6-X-6-X-6-5-4-------------------------------|
D|---------------------------------------------------------------|
A|---------------------------------------------------------------|
D|---------------------------------------------------------------|


Verse  0.45 - 1.14
Same as the intro
e|-------------------------------------------------------------------|
B|-------------------------------------------------------------------|
G|6-6-6-6-6-6-6-6-6-6-6-6-6-6-6-6-6-6-6-6-6-6-6-6-6-6-6-6-6-6-6-6-6-6|
D|-------------------------------------------------------------------|
A|-------------------------------------------------------------------|
D|-------------------------------------------------------------------|


Pre-Chorus ("oh take these storms away") 1.14 - 1.29
e|-----------------------------------------------------------------------|
B|-----------------------------------------------------------------------|
G|-----------------------------------------------------------------------|
D|11-11-11-11-11-11-11-11-6-6-6-6-6-6-6-6-8-8-8-8-8-8-8-8-4-4-4-4-4-4-4-4|
A|11-11-11-11-11-11-11-11-6-6-6-6-6-6-6-6-8-8-8-8-8-8-8-8-4-4-4-4-4-4-4-4|
D|11-11-11-11-11-11-11-11-6-6-6-6-6-6-6-6-8-8-8-8-8-8-8-8-4-4-4-4-4-4-4-4|

e|-----------------------------------------------|
B|-----------------------------------------------|
G|-----------------------------------------------|
D|11-11-11-11-11-11-11-11-13-13-13-13-13-13-13-13|
A|11-11-11-11-11-11-11-11-13-13-13-13-13-13-13-13|
D|11-11-11-11-11-11-11-11-13-13-13-13-13-13-13-13|

e|-------------------------------|
B|-------------------------------|
G|-------------------------------|
D|8-8-8-8-8-8-8-8-6-6-6-6-6-6-6-6|
A|8-8-8-8-8-8-8-8-6-6-6-6-6-6-6-6|
D|8-8-8-8-8-8-8-8-6-6-6-6-6-6-6-6|


Just before the chorus (hold on, hold on) 1.29 - 1.36
All palm muted, 3 bars and then 1 bar rest then kicks into chorus

e|---------------------------------------------------------------------|
B|---------------------------------------------------------------------|
G|---------------------------------------------------------------------|
D|6-6-6-6-6-6-6-6-6-6-6-6 6-6-6-6-6-6-6-6-6-6-6-6----------------------|
A|6-6-6-6-6-6-6-6-6-6-6-6-6-6-6-6-6-6-6-6-6-6-6-6----------------------|
D|6-6-6-6-6-6-6-6-6-6-6-6-6-6-6-6-6-6-6-6-6-6-6-6----------------------|


Chorus 1.36 - 1.51 ("where we belong")
e|-----------------------------------------------------------------------|
B|-----------------------------------------------------------------------|
G|-----------------------------------------------------------------------|
D|11-11-11-11-11-11-11-11-6-6-6-6-6-6-6-6-8-8-8-8-8-8-8-8-4-4-4-4-4-4-4-4|
A|11-11-11-11-11-11-11-11-6-6-6-6-6-6-6-6-8-8-8-8-8-8-8-8-4-4-4-4-4-4-4-4|
D|11-11-11-11-11-11-11-11-6-6-6-6-6-6-6-6-8-8-8-8-8-8-8-8-4-4-4-4-4-4-4-4|

e|------------------------------------------------------------------------|
B|------------------------------------------------------------------------|
G|------------------------------------------------------------------------|
D|11-11-11-11-11-11-11-11-6-6-6-6-6-6-6-6-4-4-4-4-4-4-4-4-4-4-4-4-4-4-4-4-|
A|11-11-11-11-11-11-11-11-6-6-6-6-6-6-6-6-4-4-4-4-4-4-4-4-4-4-4-4-4-4-4-4-|
D|11-11-11-11-11-11-11-11-6-6-6-6-6-6-6-6-4-4-4-4-4-4-4-4-4-4-4-4-4-4-4-4-|


Verse 1.51 - 2.05 after chorus goes like:
e|---------------------------------------------------------------|
B|---------------------------------------------------------------|
G|-X-6-X-6-X-6-X-6-X-6-X-6-X-6-5-4-------------------------------|
D|---------------------------------------------------------------|      X4
A|---------------------------------------------------------------|
D|---------------------------------------------------------------|


Pre-chorus 2.05 - 2.20
e|-----------------------------------------------------------------------|
B|-----------------------------------------------------------------------|
G|-----------------------------------------------------------------------|
D|11-11-11-11-11-11-11-11-6-6-6-6-6-6-6-6-8-8-8-8-8-8-8-8-4-4-4-4-4-4-4-4|
A|11-11-11-11-11-11-11-11-6-6-6-6-6-6-6-6-8-8-8-8-8-8-8-8-4-4-4-4-4-4-4-4|
D|11-11-11-11-11-11-11-11-6-6-6-6-6-6-6-6-8-8-8-8-8-8-8-8-4-4-4-4-4-4-4-4|

e|-----------------------------------------------|
B|-----------------------------------------------|
G|-----------------------------------------------|
D|11-11-11-11-11-11-11-11-13-13-13-13-13-13-13-13|
A|11-11-11-11-11-11-11-11-13-13-13-13-13-13-13-13|
D|11-11-11-11-11-11-11-11-13-13-13-13-13-13-13-13|

e|-------------------------------|
B|-------------------------------|
G|-------------------------------|
D|8-8-8-8-8-8-8-8-6-6-6-6-6-6-6-6|
A|8-8-8-8-8-8-8-8-6-6-6-6-6-6-6-6|
D|8-8-8-8-8-8-8-8-6-6-6-6-6-6-6-6|


Chorus - Instead of the break before the other chorus, it just kicks straight into the 
from here at 2.20 - 2.34

e|-----------------------------------------------------------------------|
B|-----------------------------------------------------------------------|
G|-----------------------------------------------------------------------|
D|11-11-11-11-11-11-11-11-6-6-6-6-6-6-6-6-8-8-8-8-8-8-8-8-4-4-4-4-4-4-4-4|
A|11-11-11-11-11-11-11-11-6-6-6-6-6-6-6-6-8-8-8-8-8-8-8-8-4-4-4-4-4-4-4-4|
D|11-11-11-11-11-11-11-11-6-6-6-6-6-6-6-6-8-8-8-8-8-8-8-8-4-4-4-4-4-4-4-4|


e|------------------------------------------------------------------------|
B|------------------------------------------------------------------------|
G|------------------------------------------------------------------------|
D|11-11-11-11-11-11-11-11-6-6-6-6-6-6-6-6-4-4-4-4-4-4-4-4-4-4-4-4-4-4-4-4-|
A|11-11-11-11-11-11-11-11-6-6-6-6-6-6-6-6-4-4-4-4-4-4-4-4-4-4-4-4-4-4-4-4-|
D|11-11-11-11-11-11-11-11-6-6-6-6-6-6-6-6-4-4-4-4-4-4-4-4-4-4-4-4-4-4-4-4-|


Slowed down section 2.34 -  3.18  Played 3 times, all notes palm muted the first 2 
none muted the third time

e|---------------------------------------------------|
B|---------------------------------------------------|
G|---------------------------------------------------|
D|11-11-11-11-11-11-11-11-11-11-11-11-11-11-11-11----|
A|11-11-11-11-11-11-11-11-11-11-11-11-11-11-11-11----|
D|11-11-11-11-11-11-11-11-11-11-11-11-11-11-11-11----|

e|----------------------------------------------------------------|
B|----------------------------------------------------------------|
G|----------------------------------------------------------------|
D|6-6-6-6-6-6-6-6-6-6-6-6-6-6-6-6-8-8-8-8-8-8-8-8-8-8-8-8-8-8-8-8-|
A|6-6-6-6-6-6-6-6-6-6-6-6-6-6-6-6-8-8-8-8-8-8-8-8-8-8-8-8-8-8-8-8-|
D|6-6-6-6-6-6-6-6-6-6-6-6-6-6-6-6-8-8-8-8-8-8-8-8-8-8-8-8-8-8-8-8-|

e|--------------------------------|
B|--------------------------------|
G|--------------------------------|
D|4-4-4-4-4-4-4-4-4-4-4-4-4-4-4-4-|
A|4-4-4-4-4-4-4-4-4-4-4-4-4-4-4-4-|
D|4-4-4-4-4-4-4-4-4-4-4-4-4-4-4-4-|


Final Chorus 3.18 - 3.41 end of song
e|-----------------------------------------------------------------------|
B|-----------------------------------------------------------------------|
G|-----------------------------------------------------------------------|
D|11-11-11-11-11-11-11-11-6-6-6-6-6-6-6-6-8-8-8-8-8-8-8-8-4-4-4-4-4-4-4-4|
A|11-11-11-11-11-11-11-11-6-6-6-6-6-6-6-6-8-8-8-8-8-8-8-8-4-4-4-4-4-4-4-4|
D|11-11-11-11-11-11-11-11-6-6-6-6-6-6-6-6-8-8-8-8-8-8-8-8-4-4-4-4-4-4-4-4|


e|------------------------------------------------------------------------|
B|------------------------------------------------------------------------|
G|------------------------------------------------------------------------|
D|11-11-11-11-11-11-11-11-6-6-6-6-6-6-6-6-4-4-4-4-4-4-4-4-4-4-4-4-4-4-4-4-|
A|11-11-11-11-11-11-11-11-6-6-6-6-6-6-6-6-4-4-4-4-4-4-4-4-4-4-4-4-4-4-4-4-|
D|11-11-11-11-11-11-11-11-6-6-6-6-6-6-6-6-4-4-4-4-4-4-4-4-4-4-4-4-4-4-4-4-|

Hope this tab was useful, please rate and comment :)

************************************

| /   slide up
| \   slide down
| h   hammer-on
| p   pull-off
| ~   vibrato
| +   harmonic
| x   Mute note
| b   Bend
| pb  Pre-bend
| br  Bend release
| pbr Pre-bend release
| brb Bend release bend

************************************
Tap to rate this tab
# A B C D E F G H I J K L M N O P Q R S T U V W X Y Z