Song name
# A B C D E F G H I J K L M N O P Q R S T U V W X Y Z

Lostprophets - I Need You Tonight tab

Band: Lostprophets
Album: Fakesoundofprogress CD single 2
Tabbed by: Mental0rbs
Tuning: Standard


Main Riff
|--8---8---8-----|-11-11-11-11-10-10-10--8--|
|--8---8---8-----|-11-11-11-11-10-10-10--8--|
|--9---9---9-----|-12-12-12-12-10-10-10--9--|
|----------------|--------------------------|
|----------------|--------------------------|
|----------------|--------------------------|

Verse
|-----------------------| 
|-----------------------|
|--5--7-8-7--5--7-8-7-7-|
|-----------------------|
|-----------------------|
|-----------------------|
  *   * * *  *  * * * *

"So how do you feel?"
|-------------|---------------|
|-------------|---------------|
|-------------|---------------|
|--10--9--10--|--3-3---3-3----|
|-------------|------6-----6--|
|-------------|---------------|
Tap to rate this tab
 
# A B C D E F G H I J K L M N O P Q R S T U V W X Y Z