Song name
# A B C D E F G H I J K L M N O P Q R S T U V W X Y Z

Lostprophets - Wyseguy tab

Band: Lostprophets
Track: Wyseguy
Album: Para Todas Las Putas Celosas (Demo)
Tabbed by: Mental0rbs
Tuning: Drop D

Intro

"Wyseguy!"
1------------------------|
2------------------------|
3------------------------|
4---------7---7---7---7--|
5---------5---5---5---5--|
6---------0---0---0---0--|

1-------------------|
2-------------------|
3-------------------|
4--7----------------| X8
5--5----------------|
6--0-0-0-0-0-1-0-0--|
     * * * * * * *

1----------------------------------|
2--7-7------------7-7------7*------|
3--x-x-55-7-5-7-5-x-x-55-7----7-5--| X2
4--5-5------------5-5--------------|
5--5-5------------5-5--------------|
6----------------------------------|

1----------------|
2--7-7--x-x-7-7--|
3--x-x--x-x-x-x--|
4--5-5--x-x-5-5--|
5--5-5--x-x-5-5--|
6----------------|

Verse
1----------------------------------|    |--------------------------|
2--7-7------------7-7------7*------|    |--------------------------|
3--x-x-55-7-5-7-5-x-x-55-7----7-5--| X2 |--7-7-7777-55-7-7-777777--| X2
4--5-5------------5-5--------------|    |--x-x---------x-x---------|
5--5-5------------5-5--------------|    |--5-5---------5-5---------|
6----------------------------------|    |--------------------------|

Verse cont'd
1----------------------------------|    1-------------------|
2--7-7------------7-7------7*------|    2--7-7--x-x-7-7-7*--|
3--x-x-55-7-5-7-5-x-x-55-7----7-5--| X2 3--x-x--x-x-x-x-----| X2
4--5-5------------5-5--------------|    4--5-5--x-x-5-5-----|
5--5-5------------5-5--------------|    5--5-5--x-x-5-5-----|
6----------------------------------|    6-------------------|


1-------------------|
2-------------------|
3-------------------|
4--0-0000---0-0000--|
5--0-0000---0-0000--|
6--0-0000---0-0000--|
   * ****   * ****

1----------------------------------|
2--7-7------------7-7------7*------|
3--x-x-55-7-5-7-5-x-x-55-7----7-5--| 
4--5-5------------5-5--------------|
5--5-5------------5-5--------------|
6----------------------------------|

Then repeat whole verse

1-------------------|
2-------------------|
3-------------------| X4
4--0-0000---0-0000--|
5--0-0000---0-0000--|
6--0-0000---0-0000--|
   * ****   * ****

Chorus

1----------------------------------------|
2----------------------------------------|
3-----5-555---------------5-555----------| X2
4--7--3-333------------7--3-333---7-7-5--|
5--5--------3--5-555---5--------3-5-5-3--|
6-----------3--5-555------------3--------|

1-------------------|
2-------------------|
3-------------------| X2
4--0-0000---0-0000--|
5--0-0000---0-0000--|
6--0-0000---0-0000--|
   * ****   * ****

1----------------------------------|
2--7-7------------7-7------7*------|
3--x-x-55-7-5-7-5-x-x-55-7----7-5--| 
4--5-5------------5-5--------------|
5--5-5------------5-5--------------|
6----------------------------------|

1-------------------|
2--7-7--x-x-7-7-7*--|
3--x-x--x-x-x-x-----| X2
4--5-5--x-x-5-5-----|
5--5-5--x-x-5-5-----|
6-------------------|


Then repeat whole verse



1-------------------|
2-------------------|
3-------------------| X4
4--0-0000---0-0000--|
5--0-0000---0-0000--|
6--0-0000---0-0000--|
   * ****   * ****

chorus

1----------------------------------------|
2----------------------------------------|
3-----5-555---------------5-555----------| X4
4--7--3-333------------7--3-333---7-7-5--|
5--5--------3--5-555---5--------3-5-5-3--|
6-----------3--5-555------------3--------|

1-----------------------------------------|
2-----------------------------------------|
3-----------------------------------------| X4
4--10101010--10101010---7-7-7-7--7-7-7-7--|
5--8-8-8-8---8-8-8-8----5-5-5-5--5-5-5-5--|
6--8-8-8-8---8-8-8-8----5-5-5-5--5-5-5-5--|

1-------------------|
2-------------------|
3-------------------| X2
4--0-0000---0-0000--|
5--0-0000---0-0000--|
6--0-0000---0-0000--|
   * ****   * ****
Tap to rate this tab
 
# A B C D E F G H I J K L M N O P Q R S T U V W X Y Z