Song name
# A B C D E F G H I J K L M N O P Q R S T U V W X Y Z

Lostprophets - Streets Of Nowhere tab

Title: Streets of Nowhere
Artist: Lostprophets
Album: The Betrayed

Tuning: Standard


Sorry if this is a little off but i think its pretty close. Btw sorry i know i couldn't 
the bridge try and figure it out if u can and if you do send it to me so i can put it in!

Intro
|----------------------------------------------|
|----------------------------------------------|
|----------------------------------------------|
|------7-7-------7-7-7-7-----7-7-------7-7-7-7-| (x4)
|----------------------------------------------|
|--5-5-----5-5-5---------5-5-----5-5-5---------|

Verse

|--------------------------------------------------------------|
|--------------------------------------------------------------|
|--------------------------------------------------------------|
|------7-7-------7-7-7-7-----7-7-------7-7-7-7-----11-11-------|
|--------------------------------------------------------------|
|--5-5-----5-5-5---------5-5-----5-5-5---------9-9-------9-9-9-|

------------------------------------|
------------------------------------|
------------------------------------|
--11-11-11-11-----9-9-------9-9-9-9-| (x2)
------------------------------------|
--------------7-7-----7-7-7---------|

Pre-Chorus
|------9-------9---|
|--5-7---7-5-7---7-|
|------------------| (x7)
|------------------|
|------------------|
|------------------|

|--------------------|
|--5-7-10-7-5-7-10-7-|
|--------------------|
|--------------------|
|--------------------|
|--------------------|

Chorus
|--------------------------------------|
|--------------------------------------|
|--------------------------------------|
|---------------------4--(x4)----------| (x4)
|--7---(x4)--2--(x6)--2-------4--(x6)--|
|--5---------0----------------2--------|


Intro (x2)

Verse 2 (same as Verse 1)

Pre-Chorus

Chorus

Pre-Chorus

Bridge (srry i couldnt figure it out)

Chorus

Outro (same as Intro)
Tap to rate this tab
 
# A B C D E F G H I J K L M N O P Q R S T U V W X Y Z