Song name
# A B C D E F G H I J K L M N O P Q R S T U V W X Y Z

Lostprophets - Next Stop Atro City tab

-------------------------------------------------------------------------------
     NEXT STOP ATRO CITY - Lostprophets
-------------------------------------------------------------------------------
Tabbed by: Mono
Email: bowdowntothemono@hotmail.co.uk

Tuning: Drop D (DADGBe)

I've tabbed this for only one guitar, but I thinks it's close enough to what's actually 
the album. Awesome new album!

Intro/1st Verse (Listen to CD for rhythm):
e|----------------------------------------------------|
B|----------------------------------------------------|
G|----------------------------------------------------|
D|-7-76-6-6-6-67-76-6-6-6-67-76-6-6-6-9-97-9-9-11-11--| x2
A|-7-76-6-6-6-67-76-6-6-6-67-76-6-6-6-9-97-9-9-11-11--|
D|-7-76-6-6-6-67-76-6-6-6-67-76-6-6-6-9-97-9-9-11-11--|

1st Chorus:
e|---------------------------------------------------|
B|---------------------------------------------------|
G|---------------------------13131313------15151515--|
D|-6c-4c-2c-4c-6c-4c-2c-2-22----------4-44-----------|
A|-6c-4c-2c-4c-6c-4c-2c-2-22-11111111-4-44-13131313--|
E|-6c-4c-2c-4c-6c-4c-2c-2-22----------4-44-----------|

Pre-Verse:
e|-----------------|
B|-----------------|
G|-----------------|
D|-7-76------------|
A|-7-76------------|
D|-7-76-7\\\\\-6b--|

2nd Verse:
e|-------------------------------------------|
B|-------------------------------------------|
G|-------------------------------------------|
D|-7-76-6-6-6-67-76-6-6-6-67-76-6-6-6-9-97\--|
A|-7-76-6-6-6-67-76-6-6-6-67-76-6-6-6-9-97\--|
D|-7-76-6-6-6-67-76-6-6-6-67-76-6-6-6-9-97\--|

e|---------------------------------------------------------------|
B|---------------------------------------------------------------|
G|---------------------------------------------------------------|
D|-7-76-6666-6666-6666-67------76-6666-6666-6666-9-97---9-11-11--|
A|-7-76-6666-6666-6666-67- x2 -76-6666-6666-6666-9-97---9-11-11--|
D|-7-76-6666-6666-6666-67------76-6666-6666-6666-9-97---9-11-11--|
        ...  ...  ...             ...  ...  ...

2nd Chorus (same as 1st)

Bridge Part 1:
e|-------------------------------------------|
B|-------------------------------------------|
G|-----------------------131313------151515--| x3
D|------------------2-22--------4-44---------|
A|----4-------6-----2-22-111111-4-44-131313--|
D|-666-6664666-6664-2-22--------4-44---------|

Bridge Part 2:
e|-------------------|
B|-------------------|
G|-------------------| x6 (x2 alone, then x4 with band + screams)
D|-------------------|
A|----4-------6------|
D|-666-6664666-6664--|

Bridge Part 3:
e|-------------------------------------------|
B|-------------------------------------------|
G|-------------------------------------------|
D|-6666--------------------------------------|
A|-6666- x8 -4h6---2h4-4h6---2h4---4h6- x4 --|
D|-6666---------4h6-------4h6---4h6----------|
   ...

Bridge Part 4:
e|--------------------------------------------|
B|--------------------------------------------|
G|--------------------------------------------|
D|-6666------------------6666------66-66666~--|
A|-6666- x7 ------4h6h8--6666- x6 -66-66666~--|
D|-6666------4h6h8-------6666------66-66666~--|
   ...                   ...       .. ....

Pre-Chorus:
e|----------------|
B|----------------|
G|-6~---4~---6~---|
D|-4~---2~---4~---|
A|-4~---2~---4~---|
E|----------------|

3rd Chorus (same as 1st, except bass goes D|-6c-8c-9c-11c-| on first section)

Bridge Part 1 (let the 2 and 4 power chords ring on the last repeat)

Bridge Part 4 minus the ending.

THE END.

************************************

| /   slide up
| \   slide down
| h   hammer-on
| p   pull-off
| ~   vibrato
| +   harmonic
| x   Mute note
| b   Bend
| pb  Pre-bend
| br  Bend release
| pbr Pre-bend release
| brb Bend release bend
| c   Continuous picking

************************************
Tap to rate this tab
 
# A B C D E F G H I J K L M N O P Q R S T U V W X Y Z