Song name
# A B C D E F G H I J K L M N O P Q R S T U V W X Y Z

Lostprophets - Where We Belong tab

Lostprophets- Where we belong
Intro

e|-----------------------------------------------------------|
b|-----------------------------------------------------------|
g|-6-6-6-6-6-6-6-6-6-6-6-6-6-6-6-6-6-6-6-6-6-6-6-6-6-6-6-6---|
d|-----------------------------------------------------------|
a|-----------------------------------------------------------|
e|-----------------------------------------------------------|


e|-------------------------------------------------------------|
b|-------------------------------------------------------------|
g|----------3--------------------------------------------------|
d|--11--6---3--4-----------------------------------------------|
a|--11--6---1--4-----------------------------------------------|
e|---9--4------2-----------------------------------------------|

e|-------------------------------------------------------------|
b|-------------------------------------------------------------|
g|-------------------------------------------------------------|
d|--11----6------4---------------------------------------------|
a|--11-x4-6-x4---4-x8------------------------------------------|
e|---9----4------2---------------------------------------------|


e|-----------------------------------------------------------|
b|-----------------------------------------------------------|
g|-6-6-6-6-6-6-6-6-6-6-6-6-6-6-6-6-6-6-6-6-6-6-6-6-6-6-6-6---|
d|-----------------------------------------------------------|
a|-----------------------------------------------------------|
e|-----------------------------------------------------------|


e|-------------------------------------------------------------|
b|-------------------------------------------------------------|
g|--------------3----------------------------------------------|
d|--11----6-----3-----4----------------------------------------|
a|--11-x4-6-x4--1-x4--4-x4-------------------------------------|
e|---9----4-----------2----------------------------------------|

e|-------------------------------------------------------------|
b|-------------------------------------------------------------|
g|-------------------------------------------------------------|
d|--11--------------11~----------------------------------------|
a|--11-x16(think)---11~----------------------------------------|
e|---9---------------9~----------------------------------------|

e|-------------------------------------------------------------|
b|-------------------------------------------------------------|
g|--------------3----------------------------------------------|
d|--11----6-----3-----4----------------------------------------|
a|--11-x4-6-x4--1-x4--4-x4-------------------------------------|
e|---9----4-----------2----------------------------------------|


e|-------------------------------------------------------------|
b|-------------------------------------------------------------|
g|-------------------------------------------------------------|
d|--11----6------4---------------------------------------------|
a|--11-x4-6-x4---4-x8------------------------------------------|
e|---9----4------2---------------------------------------------|

e|-----------------------------------------------------------|
b|-----------------------------------------------------------|
g|-6-6-6-6-6-6-6-6-6-6-6-6-6-6-6-6-6-6-6-6-6-6-6-6-6-6-6-6---|
d|-----------------------------------------------------------|
a|-----------------------------------------------------------|
e|-----------------------------------------------------------|


e|-------------------------------------------------------------|
b|-------------------------------------------------------------|
g|--------------3----------------------------------------------|
d|--11----6-----3-----4----------------------------------------|
a|--11-x4-6-x4--1-x4--4-x4-------------------------------------|
e|---9----4-----------2----------------------------------------|


e|-------------------------------------------------------------|
b|-------------------------------------------------------------|
g|--------------3----------------------------------------------|
d|--11----6-----3-----4----------------------------------------|
a|--11-x4-6-x4--1-x4--4-x4-------------------------------------|
e|---9----4-----------2----------------------------------------|


e|-------------------------------------------------------------|
b|-------------------------------------------------------------|
g|-------------------------------------------------------------|
d|--11----6------4---------------------------------------------|
a|--11-x4-6-x4---4-x10-----------------------------------------|
e|---9----4------2---------------------------------------------|


e|-------------------------------------------------------------|
b|-------------------------------------------------------------|
g|-------------------------------------------------------------|
d|--11----6------4---------------------------------------------|
a|--11-x4-6-x4---4-x10-----------------------------------------|
e|---9----4------2---------------------------------------------|

|--------------------------------------------------------------|
b|-------------------------------------------------------------|
g|-------------------------------------------------------------|
d|--------------3----------------------------------------------|
a|--11-x4-6-x4--1-x4--4-x4-------------------------------------|
e|---9----4-----------2----------------------------------------|
play this palm muted or quietly


e|-------------------------------------------------------------|
b|-------------------------------------------------------------|
g|--------------3----------------------------------------------|
d|--11----6-----3-----4----------------------------------------|
a|--11-x3-6-x3--1-x3--4-x3-------------------------------------|
e|---9----4-----------2----------------------------------------|


e|-------------------------------------------------------------|
b|-------------------------------------------------------------|
g|-----------------3-------------------------------------------|
d|--11------6------3------4------------------------------------|
a|--11-x11--6-x11--1-x11--4-x11--------------------------------|
e|---9------4-------------2------------------------------------|

e|-------------------------------------------------------------|
b|-------------------------------------------------------------|
g|--------------3----------------------------------------------|
d|--11----6-----3-----4----------------------------------------|
a|--11-x4-6-x4--1-x4--4-x4-------------------------------------|
e|---9----4-----------2----------------------------------------|


e|-------------------------------------------------------------|
b|-------------------------------------------------------------|
g|-------------------------------------------------------------|
d|--11----6------4----4~---------------------------------------|
a|--11-x4-6-x4---4-x7-4~---------------------------------------|
e|---9----4------2----2~---------------------------------------|
gradually slow down and end hold the chord

thanks for looking hope this helps please rate and tell me what you think:D
Tap to rate this tab
 
# A B C D E F G H I J K L M N O P Q R S T U V W X Y Z