Song name
# A B C D E F G H I J K L M N O P Q R S T U V W X Y Z

Lostprophets - Darkest Blue tab

(This song is probably played a different way as Mike And Lee but it sound ok so i 
it the way i play it and i added lyrics so you don't get lost while playing it...)
I also have a video of me playing it to add soon...

Starts with the Rhythm because i cant quite work out the intro yet...
(If you know it email me @ Liberationjazza@hotmail.co.uk)


---------------------------|----------------------------|
---------------------------|----------------------------|
--6-----13-----8-----8-----|-6-----13-----8-----8-----6-|
--4-x10-11-x10-6-x10-6-x10-|-4-x10-11-x10-6-x10-6-x10-4-|
--4-----11-----6-----6-----|-4-----11-----6-----6-----4-|
--4-----11-----6-----6-----|-4-----11-----6-----6-----4-|
(I can see into this abyss, There is no stopping myself, From feeling this.)

**this parts tricky to get the rhythm of and also write down so do the same as the first 
for the others**

(And I think it's coming through, The air it torments me, I try to move that dial, And 
this frequency.)
(Everywhere that I go, Misery will follow, And it won't let me go, And it won't let go...)
---------------------------|------------------------------------------|
---------------------------|------------------------------------------|
-6666xx666x6x6--10--8--8-)-|--10----8-----3-----6-----3-----x----3----|
-6666xx666x6x6--10--8--8-)x2|-8-x16-6-x16-1-x16-4-x16-1-x17-x-x2-1-x5-|
-4444xx444x4x4--08--6--6-)-|--8-----6-----1-----4-----1-----x----1----|
---------------------------|--8-----6-----1-----4-----1-----x----1----|

(I keep fading into you, Drowning in your darkest blue, The sorrow pulls me down, I'm 
without sound, I still hear them calling.)
---------------------------|----------------------------|
---------------------------|----------------------------|
--6-----13-----8-----8-----|-6-----13-----8-----8-----6-|
--4-x10-11-x10-6-x10-6-x10-|-4-x10-11-x10-6-x10-6-x10-4-|
--4-----11-----6-----6-----|-4-----11-----6-----6-----4-|
--4-----11-----6-----6-----|-4-----11-----6-----6-----4-|

(There's no hope, There's no hope for me, Cause I can't silence the sound, They keep 
me. (They keep calling me)
(Everywhere that I go, Misery will follow, And it won't let me go, And it won't let go.)
---------------------------|------------------------------------------|
---------------------------|------------------------------------------|
-6666xx666x6x6--10--8--8-)-|--10----8-----3-----6-----3-----x----3----|
-6666xx666x6x6--10--8--8-)x2|-8-x16-6-x16-1-x16-4-x16-1-x17-x-x2-1-x5-|
-4444xx444x4x4--08--6--6-)-|--8-----6-----1-----4-----1-----x----1----|
---------------------------|--8-----6-----1-----4-----1-----x----1----|

(I keep fading into you, Drowning in your darkest blue, The sorrow pulls me down, I'm 
without sound, I still hear them calling.)
---------------------------|----------------------------|
---------------------------|----------------------------|
--6-----13-----8-----8-----|-6-----13-----8-----8-----6-|
--4-x10-11-x10-6-x10-6-x10-|-4-x10-11-x10-6-x10-6-x10-4-|
--4-----11-----6-----6-----|-4-----11-----6-----6-----4-|
--4-----11-----6-----6-----|-4-----11-----6-----6-----4-|

*Solo Part 1*
---------------------------------------------------------------------|
-------------------------------------------6666----------------------|
------6666-------------6666--------88888888----66665555--------------|
--8888----66668888-8888----66668888--------------------6666----------|
---------------------------------------------------------------------|
---------------------------------------------------------------------|


*Solo Part 2*
---------------------------------------------------------------66666-|
-------------------------------------------6666----999966669999------|
------6666-------------6666--------88886666----8888------------------|
--8888----66668888-8888----66668888----------------------------------|
---------------------------------------------------------------------|
---------------------------------------------------------------------|


*Rhythm part to the solo parts 1 & 2*
---------------------------|----------------------------|
---------------------------|----------------------------|
---10----6-----8-----------|---10----6-----5----6----6--|
---8-x32-4-x16-6-x16-------|---8-x32-4-x16-3-x8-4-x8-4--|
---8-----4-----6-----------|---8-----4-----3----4----4--|
---8-----4-----6-----------|---8-----4-----3----4----4--|
(I still hear them calling!)


(Everywhere that I go, Misery will follow, And it won't let me go, It won't let go, It 
let go.)

---------------------------|
---------------------------|
--6-----13-----8-----8-----|
--4-x10-11-x10-6-x10-6-x10-|
--4-----11-----6-----6-----|
--4-----11-----6-----6-----|

(I keep fading into you, Drowning in your darkest blue)

---------------------------|
---------------------------|
--6-----13-----8-----8-----|
--4-x10-11-x10-6-x10-6-x10-|
--4-----11-----6-----6-----|
--4-----11-----6-----6-----|


(The sorrow pulls me down, I'm weightless without sound,
I still hear them calling,)

(I still hear them calling,
I still hear them calling,
I still hear them calling )

---------------------------|----------------------------|
---------------------------|----------------------------|
--6-----13-----8-----8-----|-6-----13-----8-----8-----6-|
--4-x10-11-x10-6-x10-6-x10-|-4-x10-11-x10-6-x10-6-x10-4-|
--4-----11-----6-----6-----|-4-----11-----6-----6-----4-|
--4-----11-----6-----6-----|-4-----11-----6-----6-----4-|


:) x
Tap to rate this tab
# A B C D E F G H I J K L M N O P Q R S T U V W X Y Z