Song name
# A B C D E F G H I J K L M N O P Q R S T U V W X Y Z

Lostprophets - Its Not The End Of The World tab

I have tabbed this in Drop D, though I'm sure it may be in Drop C...but we shall 
see. This is not PERFECT, there are some parts still afoot.

Intro:
e--------------------------------------------------------------------|
B--------------------------------------------------------------------|
G---6-6-6-6-6-6-6-6---------------------------------6-6-6-6-6-6-6-6--|
D---6-6-6-6-6-6-6-6-6-6-6-6-6-6-6-6-1-1-1-1-1-1-1-1-6-6-6-6-6-6-6-6--|
A---4-4-4-4-4-4-4-4-6-6-6-6-6-6-6-6-1-1-1-1-1-1-1-1-4-4-4-4-4-4-4-4--|
D-------------------6-6-6-6-6-6-6-6-1-1-1-1-1-1-1-1------------------|

e--------------------------------------------------------------------|
B--------------------------------------------------------------------|
G---6-6-6-6-6-6-6-6--------------------------------------------------|
D---6-6-6-6-6-6-6-6-6-6-6-6-6-6-6-6-1-1-1-1-1-1-1-1-2-2-2-2-1-1-1-1--|
A---4-4-4-4-4-4-4-4-6-6-6-6-6-6-6-6-1-1-1-1-1-1-1-1-2-2-2-2-1-1-1-1--|
D-------------------6-6-6-6-6-6-6-6-1-1-1-1-1-1-1-1-2-2-2-2-1-1-1-1--|

e--------------------------------------------------------------------|
B--------------------------------------------------------------------|
G---6-6-6-6-6-6-6-6---------------------------------6-6-6-6-6-6-6-6--|
D---6-6-6-6-6-6-6-6-6-6-6-6-6-6-6-6-1-1-1-1-1-1-1-1-6-6-6-6-6-6-6-6--|
A---4-4-4-4-4-4-4-4-6-6-6-6-6-6-6-6-1-1-1-1-1-1-1-1-4-4-4-4-4-4-4-4--|
D-------------------6-6-6-6-6-6-6-6-1-1-1-1-1-1-1-1------------------|

e-----------------------------------------------------------------------|
B-----------------------------------------------------------------------|
G------6-6-6-6-6-6-6-6--------------------------------------------------|
D-x-x--6-6-6-6-6-6-6-6-6-6-6-6-6-6-6-6-1-1-1-1-1-1-1-1---2-2---1-1------|
A-x-x--4-4-4-4-4-4-4-4-6-6-6-6-6-6-6-6-1-1-1-1-1-1-1-1---2-2---1-1------|
D-x-x------------------6-6-6-6-6-6-6-6-1-1-1-1-1-1-1-1---2-2---1-1------|

Verse:
Nothing, until:
(Down on your knees...)
e-------------------------------|
B-------------------------------|
G-------------------------------|
D--6-6-6-6-6-6-6-6-1-1-1-1-1-1--|
A--6-6-6-6-6-6-6-6-1-1-1-1-1-1--|
D--6-6-6-6-6-6-6-6-1-1-1-1-1-1--|
|...............................|
          PALM MUTE

(Behind these walls...)

e---------------------------------------------------------------------|
B---------------------------------------------------------------------|
G---9-9-9-9-9-9-9-9-9-9-9-9-9-9-9-9-----------------------------------|
D---9-9-9-9-9-9-9-9-9-9-9-9-9-9-9-9--6-6-6-6-6-6-6-6-9-9-9-9-8-8-8-8--|
A---7-7-7-7-7-7-7-7-7-7-7-7-7-7-7-7--6-6-6-6-6-6-6-6-9-9-9-9-8-8-8-8--|
D------------------------------------6-6-6-6-6-6-6-6-9-9-9-9-8-8-8-8--|

e---------------------------------------------------------------------|
B---------------------------------------------------------------------|
G---9-9-9-9-9-9-9-9-9-9-9-9-9-9-9-9--4-4-4-4-4-4-4-4-5-5-5-5-5-5-5-5--|
D---9-9-9-9-9-9-9-9-9-9-9-9-9-9-9-9--4-4-4-4-4-4-4-4-5-5-5-5-5-5-5-5--|
A---7-7-7-7-7-7-7-7-7-7-7-7-7-7-7-7--2-2-2-2-2-2-2-2-3-3-3-3-3-3-3-3--|
D---------------------------------------------------------------------|

CHORUS:
e--------------------------------------------------------------------|
B--------------------------------------------------------------------|
G---6-6-6-6-6-6-6-6---------------------------------6-6-6-6-6-6-6-6--|
D---6-6-6-6-6-6-6-6-6-6-6-6-6-6-6-6-1-1-1-1-1-1-1-1-6-6-6-6-6-6-6-6--|
A---4-4-4-4-4-4-4-4-6-6-6-6-6-6-6-6-1-1-1-1-1-1-1-1-4-4-4-4-4-4-4-4--|
D-------------------6-6-6-6-6-6-6-6-1-1-1-1-1-1-1-1------------------|
                                                                        
e--------------------------------------------------------------------|
B--------------------------------------------------------------------|
G---6-6-6-6-6-6-6-6--------------------------------------------------|
D---6-6-6-6-6-6-6-6-6-6-6-6-6-6-6-6-1-1-1-1-1-1-1-1-2-2-2-2-1-1-1-1--|
A---4-4-4-4-4-4-4-4-6-6-6-6-6-6-6-6-1-1-1-1-1-1-1-1-2-2-2-2-1-1-1-1--|
D-------------------6-6-6-6-6-6-6-6-1-1-1-1-1-1-1-1-2-2-2-2-1-1-1-1--|

e--------------------------------------------------------------------|
B--------------------------------------------------------------------|
G---6-6-6-6-6-6-6-6---------------------------------6-6-6-6-6-6-6-6--|
D---6-6-6-6-6-6-6-6-6-6-6-6-6-6-6-6-1-1-1-1-1-1-1-1-6-6-6-6-6-6-6-6--|
A---4-4-4-4-4-4-4-4-6-6-6-6-6-6-6-6-1-1-1-1-1-1-1-1-4-4-4-4-4-4-4-4--|
D-------------------6-6-6-6-6-6-6-6-1-1-1-1-1-1-1-1------------------|
                                                                        
e--------------------------------------------------------------------|
B--------------------------------------------------------------------|
G---6-6-6-6-6-6-6-6--------------------------------------------------|
D---6-6-6-6-6-6-6-6-6-6-6-6-6-6-6-6-1-1-1-1-1-1-1-1---2-2---1-1------|
A---4-4-4-4-4-4-4-4-6-6-6-6-6-6-6-6-1-1-1-1-1-1-1-1---2-2---1-1------|
D-------------------6-6-6-6-6-6-6-6-1-1-1-1-1-1-1-1---2-2---1-1------|

Verse 2:

e-------------------------------|
B-------------------------------|
G-------------------------------|
D--6-6-6-6-6-6-6-6-1-1-1-1-1-1--| X4
A--6-6-6-6-6-6-6-6-1-1-1-1-1-1--|
D--6-6-6-6-6-6-6-6-1-1-1-1-1-1--|
|...............................|
          PALM MUTE

(Behind these walls...)

e---------------------------------------------------------------------|
B---------------------------------------------------------------------|
G---9-9-9-9-9-9-9-9-9-9-9-9-9-9-9-9-----------------------------------|
D---9-9-9-9-9-9-9-9-9-9-9-9-9-9-9-9--6-6-6-6-6-6-6-6-9-9-9-9-8-8-8-8--|
A---7-7-7-7-7-7-7-7-7-7-7-7-7-7-7-7--6-6-6-6-6-6-6-6-9-9-9-9-8-8-8-8--|
D------------------------------------6-6-6-6-6-6-6-6-9-9-9-9-8-8-8-8--|

e---------------------------------------------------------------------|
B---------------------------------------------------------------------|
G---9-9-9-9-9-9-9-9-9-9-9-9-9-9-9-9--4-4-4-4-4-4-4-4-5-5-5-5-5-5-5-5--|
D---9-9-9-9-9-9-9-9-9-9-9-9-9-9-9-9--4-4-4-4-4-4-4-4-5-5-5-5-5-5-5-5--|
A---7-7-7-7-7-7-7-7-7-7-7-7-7-7-7-7--2-2-2-2-2-2-2-2-3-3-3-3-3-3-3-3--|
D---------------------------------------------------------------------|

CHORUS:

e--------------------------------------------------------------------|
B--------------------------------------------------------------------|
G---6-6-6-6-6-6-6-6---------------------------------6-6-6-6-6-6-6-6--|
D---6-6-6-6-6-6-6-6-6-6-6-6-6-6-6-6-1-1-1-1-1-1-1-1-6-6-6-6-6-6-6-6--|
A---4-4-4-4-4-4-4-4-6-6-6-6-6-6-6-6-1-1-1-1-1-1-1-1-4-4-4-4-4-4-4-4--|
D-------------------6-6-6-6-6-6-6-6-1-1-1-1-1-1-1-1------------------|
                                                                        
e--------------------------------------------------------------------|
B--------------------------------------------------------------------|
G---6-6-6-6-6-6-6-6--------------------------------------------------|
D---6-6-6-6-6-6-6-6-6-6-6-6-6-6-6-6-1-1-1-1-1-1-1-1-2-2-2-2-1-1-1-1--|
A---4-4-4-4-4-4-4-4-6-6-6-6-6-6-6-6-1-1-1-1-1-1-1-1-2-2-2-2-1-1-1-1--|
D-------------------6-6-6-6-6-6-6-6-1-1-1-1-1-1-1-1-2-2-2-2-1-1-1-1--|

e--------------------------------------------------------------------|
B--------------------------------------------------------------------|
G---6-6-6-6-6-6-6-6---------------------------------6-6-6-6-6-6-6-6--|
D---6-6-6-6-6-6-6-6-6-6-6-6-6-6-6-6-1-1-1-1-1-1-1-1-6-6-6-6-6-6-6-6--|
A---4-4-4-4-4-4-4-4-6-6-6-6-6-6-6-6-1-1-1-1-1-1-1-1-4-4-4-4-4-4-4-4--|
D-------------------6-6-6-6-6-6-6-6-1-1-1-1-1-1-1-1------------------|
                                                                        
e--------------------------------------------------------------------|
B--------------------------------------------------------------------|
G---6-6-6-6-6-6-6-6--------------------------------------------------|
D---6-6-6-6-6-6-6-6-6-6-6-6-6-6-6-6-1-1-1-1-1-1-1-1---2-2---1-1------|
A---4-4-4-4-4-4-4-4-6-6-6-6-6-6-6-6-1-1-1-1-1-1-1-1---2-2---1-1------|
D-------------------6-6-6-6-6-6-6-6-1-1-1-1-1-1-1-1---2-2---1-1------|

Solo:
___________________________________________________________________
e-------------------|            e-------------------|             )
B-------------------|            B-------------------|             )
G-------------------| X2  -->    G-------------------| X2          )
D-------------------|            D-------------------|              > X4
A-------------------|            A--6-6-4-6-7-7-6-4--|             )
D--6-6-4-6-7-7-6-4--|            D-------------------|             )
___________________________________________________________________)

THEN

e----------------------------------------------------------------------|
B----------------------------------------------------------------------|
G----------------------------------------------------------------------|
D----------------------------------------------------------------------|
A-------------------------------------------------------x-x---x---x-x--|
D--4-4-2-4-5-5-4-2----7-7-5-7-8---7-8--4-4-2-4-5-5-4-2--x-x---x---x-x--|

e------------------------------------------------------------------------|
B------------------------------------------------------------------------|
G------------------------------------------------------------------------|
D------------------------------------------------------------------------|
A------------------------------------------------------------------------|
D--4-4-2-4-5-5-4-2----7-7-5-7-8---7-8--4-4-2-4-5-5-4-2--4-4-2-4-5-5-4-2--|

e------------------|         e-------------------------------------------|
B------------------|         B-------------------------------------------|
G------------------|         G-------------------------------------------|
D--0---------------|         D---4------------6---------------0----------|
A--0---------------|         A--------------------------------0----------|
D--0---------------|         D--------------------------------0----------|

CHORUS:
(I CAN SEE IT FROM HEEEEEAAAAAARRRRREEE!)


e--------------------------------------------------------------------|
B--------------------------------------------------------------------|
G---6-6-6-6-6-6-6-6---------------------------------6-6-6-6-6-6-6-6--|
D---6-6-6-6-6-6-6-6-6-6-6-6-6-6-6-6-1-1-1-1-1-1-1-1-6-6-6-6-6-6-6-6--|
A---4-4-4-4-4-4-4-4-6-6-6-6-6-6-6-6-1-1-1-1-1-1-1-1-4-4-4-4-4-4-4-4--|
D-------------------6-6-6-6-6-6-6-6-1-1-1-1-1-1-1-1------------------|
                                                                        X4
e--------------------------------------------------------------------|
B--------------------------------------------------------------------|
G---6-6-6-6-6-6-6-6--------------------------------------------------|
D---6-6-6-6-6-6-6-6-6-6-6-6-6-6-6-6-1-1-1-1-1-1-1-1-2-2-2-2-1-1-1-1--|
A---4-4-4-4-4-4-4-4-6-6-6-6-6-6-6-6-1-1-1-1-1-1-1-1-2-2-2-2-1-1-1-1--|
D-------------------6-6-6-6-6-6-6-6-1-1-1-1-1-1-1-1-2-2-2-2-1-1-1-1--|

THEN:

e--------------------------------------------------------------------|
B--------------------------------------------------------------------|
G---6-6-6-6-6-6-6-6---------------------------------6-6-6-6-6-6-6-6--|
D---6-6-6-6-6-6-6-6-6-6-6-6-6-6-6-6-1-1-1-1-1-1-1-1-6-6-6-6-6-6-6-6--|
A---4-4-4-4-4-4-4-4-6-6-6-6-6-6-6-6-1-1-1-1-1-1-1-1-4-4-4-4-4-4-4-4--|
D-------------------6-6-6-6-6-6-6-6-1-1-1-1-1-1-1-1------------------|
                                                                       
e-------------------------------------------------------------|
B-------------------------------------------------------------|
G---6-6-6-6-6-6-6-6-------------------------------------------|
D---6-6-6-6-6-6-6-6-6-6-6-6-6-6-6-6-1-1-1-1-1-1-1-1-2-2-2-2---|
A---4-4-4-4-4-4-4-4-6-6-6-6-6-6-6-6-1-1-1-1-1-1-1-1-2-2-2-2---|
D-------------------6-6-6-6-6-6-6-6-1-1-1-1-1-1-1-1-2-2-2-2---|

e---------------------------|
B---------------------------|
G---------------------------|
D--1-x-1-x-1-x-1------------|
A--1-x-1-x-1-x-1------------|
D--1-x-1-x-1-x-1------------|
Tap to rate this tab
 
# A B C D E F G H I J K L M N O P Q R S T U V W X Y Z