Song name
# A B C D E F G H I J K L M N O P Q R S T U V W X Y Z

Lostprophets - The Light That Burns Twice As Bright tab

Hey guys, this ones an incredible song by Lost Prophets, again :P This is my first tab 
me and my band are 100% sure its 100% correct but if you've got any changes then email me :)
There's two ways to play it really, the easiest one is to tune your guitar differently. 
you wanna do it another way, email me and i'll tell you how but it involves Drop D and 
2.

Tune your guitar to E A D G# C# E. This makes the top 3 strings (G# C# E) the 4th 5th 
6th notes of the C#m chord which forms the base of this song. Follow the tab and you'll 
it :)

Intro/Verse
   C#(minor)         B                F#                 E
E ---0-----0-----0-----0-----0-----0-----0-----0-----0-----0-----0-----0-|
C#-----0-----0-----------0-----0-----------0-----0-----------0-----0-----|
G#-------0-----0-----------0-----0-----------0-----0-----------0-----0---|
D -----------------------------------------------------------------------|
A -4-----------------2-----------------9-----------------7---------------|
E -----------------------------------------------------------------------|

PreChorus ("don't say, the pain will fade tomorrow")
   C#(minor)        F#                    G#
E -----------------------------------------------------------------------|
C#-----------------------------------------------------------------------|
G#---5----5-----5-----10----10------10-------8-------10-------7-------12-|
D ----------6------------------11----------------------------------------|
A -4----4-----4-----9-----9-------9-------11----(11)-----(11)----(11)----|
E -----------------------------------------------------------------------|

   C#(minor)        F#                    E
E -----------------------------------------------------------------------|
C#-----------------------------------------------------------------------|
G#---5----5-----5-----10----10------10------8------10------7-----------3-|
D ----------6------------------11----------------------------------------|
A -4----4-----4-----9-----9-------9-------7----(7)-----(7)---------------|
E -----------------------------------------------------------------------|

Chorus (Same as intro and verse)
   C#(minor)         B                F#                 E
E ---0-----0-----0-----0-----0-----0-----0-----0-----0-----0-----0-----0-|
C#-----0-----0-----------0-----0-----------0-----0-----------0-----0-----|
G#-------0-----0-----------0-----0-----------0-----0-----------0-----0---|
D -----------------------------------------------------------------------|
A -4-----------------2-----------------9-----------------7---------------|
E -----------------------------------------------------------------------|

There's a fill before verse 2 which you can probably work out, I haven't got round to 
yet. I'm pretty sure the chords are the same as the verse, flows nicely :)

The bridge ("this is how it feels") is just the main chords, C#m B F# E, sounds good are 
chords but those are a little bit different for this tuning. Look at the chord shape of 
pre chorus and you'll see :)

ANY QUESTIONS, FEEL FREE TO EMAIL ME at makutoid@gmail.com, I'll put this on guitar pro 
a few days too so have a look for that if this doesnt make any sense to you :P

Liam xD
Tap to rate this tab
# A B C D E F G H I J K L M N O P Q R S T U V W X Y Z