Song name
# A B C D E F G H I J K L M N O P Q R S T U V W X Y Z

Lostprophets - For Hes A Jolly Good Felon tab

hey this is my version of 'for hes a jolly good felon' 
its the best song theyve done by far have fun with im not 100% in parts
but it will give u an idea of how its played if there is any problems let
me kno :)


its in drop D Tuning

Intro/Verse
|--4-4-4---4---6-6--4-4--|
|--5-5-5---5---7-7--4-4--|
|--6-6-6---6---8-8--4-4--|
|--6-6-6---6---8-8--6-6--|
|--4-4-4---4---6-6--6-6--|
|------------------------|

Pre Chorus
|-------------------------------------|
|-------------------------------------|
|-------------------------------------|
|--4-4-4-4-4-4-4-4--6-6-6-6--8-8-8-8--|
|--2-2-2-2-2-2-2-2--4-4-4-4--6-6-6-6--|
|-------------------------------------|

Chorus 
|----------------------------------------------------------------------|
|----------------------------------------------------------------------|
|--8-8-8-8-8-8-8-8--4-4-4-4-4-4-4-4--4-4-4-4-4-4-4-4--3-3-3-3-3-3-3-3--|
|--6-6-6-6-6-6-6-6--2-2-2-2-2-2-2-2--4-4-4-4-4-4-4-4--1-1-1-1-1-1-1-1--|
|--6-6-6-6-6-6-6-6--2-2-2-2-2-2-2-2--2-2-2-2-2-2-2-2--1-1-1-1-1-1-1-1--|
|--6-6-6-6-6-6-6-6--2-2-2-2-2-2-2-2-------------------1-1-1-1-1-1-1-1--|

Pre-Verse
|--4-4-4---4---6-6--4-4--4-4-4---4---6-6-6-6--|
|--5-5-5---5---7-7--4-4--5-5-5---5---7-7-7-7--|
|--6-6-6---6---8-8--4-4--6-6-6---6---8-8-8-8--|
|--6-6-6---6---8-8--6-6--6-6-6---6---8-8-8-8--|
|--4-4-4---4---6-6--6-6--4-4-4---4---6-6-6-6--|
|---------------------------------------------|

Verse 
|--4-4-4---4---6-6--4-4--|
|--5-5-5---5---7-7--4-4--|
|--6-6-6---6---8-8--4-4--|
|--6-6-6---6---8-8--6-6--|
|--4-4-4---4---6-6--6-6--|
|------------------------|

Pre Chorus
|-------------------------------------|
|-------------------------------------|
|-------------------------------------|
|--4-4-4-4-4-4-4-4--6-6-6-6--8-8-8-8--|
|--2-2-2-2-2-2-2-2--4-4-4-4--6-6-6-6--|
|-------------------------------------|

Chorus
|----------------------------------------------------------------------|
|----------------------------------------------------------------------|
|--8-8-8-8-8-8-8-8--4-4-4-4-4-4-4-4--4-4-4-4-4-4-4-4--3-3-3-3-3-3-3-3--|
|--6-6-6-6-6-6-6-6--2-2-2-2-2-2-2-2--4-4-4-4-4-4-4-4--1-1-1-1-1-1-1-1--|
|--6-6-6-6-6-6-6-6--2-2-2-2-2-2-2-2--2-2-2-2-2-2-2-2--1-1-1-1-1-1-1-1--|
|--6-6-6-6-6-6-6-6--2-2-2-2-2-2-2-2-------------------1-1-1-1-1-1-1-1--|

i think he just repeats that underneath
|---------------|
|---------------|
|---------------|
|---------------|
|-----22-44-----|
|--66-------44--|

and it sounds like they play this overtop
|-------------------------------------------------|
|-------------------------------------------------|
|--13-13-11-11------------------------------------|
|-------------13-13-11-11------11-11-13-13-11-11--|
|-------------------------14-14-------------------|
|-------------------------------------------------|

|-------------------------------------------------|
|-------------------------------------------------|
|--13-13-11-11----------------------13-15-13-11---|
|-------------13-13-11-11------11-11--------------|
|-------------------------14-14-------------------|
|-------------------------------------------------|
end lead bit with this
|-------------------------------------------------|
|-------------------------------------------------|
|--13-11-13-11-13-11-13-11-15b16-16-16-16r15-13---|
|-------------------------------------------------|
|-------------------------------------------------|
|-------------------------------------------------|

after that its              overtop
|--4-4-4---4---6-6--4-4--|----------------------------------|
|--5-5-5---5---7-7--4-4--|----------------------------------|
|--6-6-6---6---8-8--4-4--|----------------------------------|
|--6-6-6---6---8-8--6-6--|----------------------------------|
|--4-4-4---4---6-6--6-6--|--4-2-4-2-4/6-2---4-2-4-2-4/6-6-6-|
|------------------------|----------------6-----------------|


Chorus to finish
|----------------------------------------------------------------------|
|----------------------------------------------------------------------|
|--8-8-8-8-8-8-8-8--4-4-4-4-4-4-4-4--4-4-4-4-4-4-4-4--3-3-3-3-3-3-3-3--|
|--6-6-6-6-6-6-6-6--2-2-2-2-2-2-2-2--4-4-4-4-4-4-4-4--1-1-1-1-1-1-1-1--|
|--6-6-6-6-6-6-6-6--2-2-2-2-2-2-2-2--2-2-2-2-2-2-2-2--1-1-1-1-1-1-1-1--|
|--6-6-6-6-6-6-6-6--2-2-2-2-2-2-2-2-------------------1-1-1-1-1-1-1-1--|

they play this again right at the end
|-------------------------------------------------|
|-------------------------------------------------|
|--13-13-11-11------------------------------------|
|-------------13-13-11-11------11-11-13-13-11-11--|
|-------------------------14-14-------------------|
|-------------------------------------------------|

|-------------------------------------------------|
|-------------------------------------------------|
|--13-13-11-11----------------------13-15-13-11---|
|-------------13-13-11-11------11-11--------------|
|-------------------------14-14-------------------|
|-------------------------------------------------|
end lead bit with this
|-------------------------------------------------|
|-------------------------------------------------|
|--13-11-13-11-13-11-13-11-15b16-16-16-16r15-13---|
|-------------------------------------------------|
|-------------------------------------------------|
|-------------------------------------------------|

cheers for checking out my tab hope u enjoy and plz rate
all comments are welcome :)
Tap to rate this tab
# A B C D E F G H I J K L M N O P Q R S T U V W X Y Z