Song name
# A B C D E F G H I J K L M N O P Q R S T U V W X Y Z

Lostprophets - Dstryr Dstryr tab

hey this is my version of dstryr dstryr

it took a while to learn cuz the speakers ent any good on my laptop but
i think ive got it :)
check it out plz rate and all comment are welcome

tuning: Drop D

intro/main riff
|------------------|
|------------------|
|------------------|
|------------------|
|------6------8----|
|--6-8---66-8------|

verse
|------------------------------------------------------------|
|--------9----------9----------9----11-11-11-11-9-9-9-9------|
|---8----8-10--8----8-10--8----8-10--------------------------|
|---8h10---10--8h10---10--8h10---10--------------------------|x2
|------------------------------------------------------------|
|------------------------------------------------------------|

|------------------|
|------------------|
|------------------|x9
|------------------|
|------6------8----|
|--6-8---66-8------|


|----------------------------------------------------|
|----------------------------------------------------|
|----------------------------------------------------|
|--66666666-88888888---------------------------------|x2
|--44444444-66666666------6------8-----6------8------|
|---------------------6-8---66-8---6-8---66-8--------|

|------------------------------------------------------------|
|------------------------------------------------------------|
|------------------------------------------------------------|
|--66666666-33333333-------------------66666666-88888888-----|
|--44444444-11111111-33333333-66666666-44444444-66666666-----|
|--------------------33333333-66666666-----------------------|

i dont kno the solo well ive sort of got it but it not 100%
but i will pop it up soon :)

the end is:
|-----------------|
|-----------------|
|-----------------|
|--1--3----6--3---|
|--1--3----6--3---|
|--1--3----6--3---|

hope that helps cheers for checking out my tab :)
Tap to rate this tab
# A B C D E F G H I J K L M N O P Q R S T U V W X Y Z