Song name
# A B C D E F G H I J K L M N O P Q R S T U V W X Y Z

Lostprophets - Its Not The End Of The World tab

Band:   Lostprophets
Song:   It's Not The End Of The World...
Tuning: Drop D flat (D,A,D,G,B,E) LOW TO HIGH
        but tuned down a further semi-tone

i have included in this tab the chord theory values. this has taken
me a while to make so please rate and enjoy :)

Lengend:
muted note: X
slide up:   /
slide down: \
pick slide: x\
tremelo:    Tr


Intro/chorus
     Dm                Am                        E
E||--5-5-5-5-5-5-5-5-|--8--8--8--8--8--8--8--8-|-7-7-7-7-7-7-7-7-|
B||o-6-6-6-6-6-6-6-6-|-10-10-10-10-10-10-10-10-|-9-9-9-9-9-9-9-9-|
G||--7-7-7-7-7-7-7-7-|--9--9--9--9--9--9--9--9-|-9-9-9-9-9-9-9-9-|
D||--7-7-7-7-7-7-7-7-|--7--7--7--7--7--7--7--7-|-----------------|
A||o-5-5-5-5-5-5-5-5-|-------------------------|-----------------|
D||------------------|-------------------------|-----------------|

    E----------------------   Dm                Am
E||-------10----13-12-10----|-5-5-5-5-5-5-5-5-|--8--8--8--8--8--8--8--8-|
B||----10----10----------13-|-6-6-6-6-6-6-6-6-|-10-10-10-10-10-10-10-10-|
G||-10----------------------|-7-7-7-7-7-7-7-7-|--9--9--9--9--9--9--9--9-|
D||-------------------------|-7-7-7-7-7-7-7-7-|--7--7--7--7--7--7--7--7-|
A||-------------------------|-5-5-5-5-5-5-5-5-|-------------------------|
D||-------------------------|-----------------|-------------------------|

1st ending                       2nd ending
    E                F      E     E               A5       E
E||-7-7-7-7-7-7-7-7--8---8--7--||-7-7-7-7-7-7-7-7----------7-----|
B||-9-9-9-9-9-9-9-9-10--10--9-o||-9-9-9-9-9-9-9-9-10-10----9-----|
G||-9-9-9-9-9-9-9-9-10--10--9--||-9-9-9-9-9-9-9-9--9--9----9-----|
D||----------------------------||------------------7--7----------|
A||---------------------------o||-----------------------------x\-|
D||----------------------------||-----------------------------x\-|


Verse 1
    Am---------------------------------------
       PM       PM       PM       PM       PM
E||-17----17-17----17-17----17-17----17-17----|
B||-------------------------------------------|
G||----14-------14-------14-------14-------14-|
D||-------------------------------------------|
A||-------------------------------------------|
D||-------------------------------------------|

    Em---------------------------------------------
       PM    PM       PM       PM       PM       PM
E||-17----15----15-15----15-15----15-15----15-15----|
B||-------------------------------------------------|
G||----14----12-------12-------12-------12-------12-|
D||-------------------------------------------------|
A||-------------------------------------------------|
D||-------------------------------------------------|

    Am---------------------------------------------
       PM    PM       PM       PM       PM       PM
E||-15----17----17-17----17-17----17-17----17-17----|
B||-------------------------------------------------|
G||----12----14-------14-------14-------14-------14-|
D||-------------------------------------------------|
A||-------------------------------------------------|
D||-------------------------------------------------|

    Em---------------------------------------------
       PM    PM       PM       PM            PM    PM
E||-15----15----15-15----15-15----15-15-|-19----20----|
B||-------------------------------------|-------------|
G||----12----12-------12-------12-------|----16----17-|
D||-------------------------------------|-------------|
A||-------------------------------------|-------------|
D||-------------------------------------|-------------|

    Am-----------------------------   Em-----------------------------
    PM---------------------------------------------------------------
E||---------------------------------|---------------------------------|
B||---------------------------------|---------------------------------|
G||---------------------------------|---------------------------------|
D||---------------------------------|---------------------------------|
A||-0-0-0-0-0-0-0-0-0-0-0-0-3-3-3-3-|---------------------------------|
D||---------------------------------|-2-2-2-2-2-2-2-2-2-2-2-2-5-5-5-5-|

    Am-----------------------------   Em-----------------------------
    PM---------------------------------------------------------------
E||---------------------------------|-------------------------|-------|
B||---------------------------------|-------------------------|-------|
G||---------------------------------|-------------------------|-------|
D||---------------------------------|-------------------------|-------|
A||-0-0-0-0-0-0-0-0-0-0-0-0-3-3-3-3-|-------------------------|-------|
D||---------------------------------|-2-2-2-2-2-2-2-2-2-2-2-2-|-2/14\-|


Pre-chorus 1 and 2
    F------------------------------   A------------------------------
E||---------------------------------|---------------------------------|
B||---------------------------------|---------------------------------|
G||---------------------------------|---------------------------------|
D||---------------------------------|---------------------------------|
A||-7-7-7-7-0-0-0-0-3-3-3-3-5-5-5-5-|-7-7-7-7-0-0-0-0-3-3-3-3---------|
D||---------------------------------|-------------------------5-5-5-5-|

    F------------------------------
E||---------------------------------||
B||---------------------------------||
G||---------------------------------||
D||---------------------------------||
A||-7-7-7-7-0-0-0-0-3-3-3-3-5-5-5-5-||
D||---------------------------------||

Pre-chorus 1 only
    C5-----------------------------
E||---------------------------------|
B||---------------------------------|
G||---------------------------------|
D||---------------------------------|
A||-3-3-3-3-3-3-3-3-4-4-4-4-4-4-4-4-|
D||---------------------------------|

Pre-chorus 2 only
    C5-----------------------------
E||-------------------------X-X-X-X-|
B||-------------------------X-X-X-X-|
G||-------------------------X-X-X-X-|
D||-------------------------X-X-X-X-|
A||-3-3-3-3-3-3-3-3-4-4-4-4-X-X-X-X-|
D||-------------------------X-X-X-X-|

then play the intro/chorus

Verse 2
     Am-----------------------------   Em-----------------------------
     PM---------------------------------------------------------------
E||----------------------------------|---------------------------------|
B||o---------------------------------|---------------------------------|
G||----------------------------------|---------------------------------|
D||----------------------------------|---------------------------------|
A||o-0-0-0-0-0-0-0-0-0-0-0-0-3-3-3-3-|---------------------------------|
D||----------------------------------|-2-2-2-2-2-2-2-2-2-2-2-2-5-5-5-5-|

    Am-----------------------------
    PM-----------------------------
E||---------------------------------|
B||---------------------------------|
G||---------------------------------|
D||---------------------------------|
A||-0-0-0-0-0-0-0-0-0-0-0-0-3-3-3-3-|
D||---------------------------------|

1st ending
    Em-----------------------------     Em---------------------
    PM---------------------------------------------------------
E||----------------------------------||------------------------------|
B||---------------------------------o||------------------------------|
G||----------------------------------||------------------------------|
D||----------------------------------||-------------------------x\\\-|
A||---------------------------------o||-------------------------x\\\-|
D||-2-2-2-2-2-2-2-2-2-2-2-2-2-2-2-2--||-2-2-2-2-2-2-2-2-2-2-2-2------|

Play the intro/chorus again

Solo
(im sure this solo is played with a wah wah pedal)

     Am            E
     Tr-----------------------
E||--------------|-------------||
B||o-10----------|-9----------o||
G||--------------|-------------||
D||--------------|-------------||
A||o-------------|------------o||
D||--------------|-------------||

    Am
E||-17-------------17----------------------17-------|
B||-------------------17----------------------15----|
G||----14-14-14-14-------14-14-14-14-14-14-------14-|
D||-------------------------------------------------|
A||-------------------------------------------------|
D||-------------------------------------------------|

    E
E||----------16-16-------------16-------------|
B||-------15----------------15----------15----|
G||-13-13----------13-13-13-------13-13----13-|
D||-------------------------------------------|
A||-------------------------------------------|
D||-------------------------------------------|

    Am
E||-17-------------17----------------------17-------|
B||-------------------17----------------------15----|
G||----14-14-14-14-------14-14-14-14-14-14-------14-|
D||-------------------------------------------------|
A||-------------------------------------------------|
D||-------------------------------------------------|

    E
E||----------16-16-16-------------------------------|
B||-------17----------15----------17----------15----|
G||-13-13----------------13-13-13----13-13-13----13-|
D||-------------------------------------------------|
A||-------------------------------------------------|
D||-------------------------------------------------|

    Gm
E||----------------15-------------------------------|
B||-------------------15----------18----------17----|
G||-12-12-12-12-12-------13-15-15----15-15-15----15-|
D||-------------------------------------------------|
A||-------------------------------------------------|
D||-------------------------------------------------|

    A
E||-------------------------------------------------|
B||-------18-17-------17----------18----------17----|
G||-14-14-------14-14----14-14-14----14-14-14----14-|
D||-------------------------------------------------|
A||-------------------------------------------------|
D||-------------------------------------------------|

    Gm
E||-15-15-12-------------15/18-18----------------18-|
B||-------------------------------18-18-------17----|
G||----------12-12-12-12----------------15-15-------|
D||-------------------------------------------------|
A||-------------------------------------------------|
D||-------------------------------------------------|

    A
E||-------------------------------------------------|
B||-17----18----------17----17-17-18----------17----|
G||-14-14----14-14-14----14----------14-14-14----14-|
D||-------------------------------------------------|
A||-------------------------------------------------|
D||-------------------------------------------------|

outro chorus
    D5                                        D5
E||-------------|-------------|-------------|-------------|-----------|
B||-------------|-------------|-let-it-ring-|-let-it-ring-|-----------|
G||-let-it-ring-|-let-it-ring-|-9-----------|-7-----------|-x\\\\\\\\-|
D||-0-----------|-------------|-------------|-7-----------|-x\\\\\\\\-|
A||-0-----------|-5-----------|-7-----------|-5-----------|-----------|
D||-0-----------|-------------|-------------|-------------|-----------|

    D5              A5                E5              D5
E||---------------------------------|---------------------------------|
B||---------------------------------|---------------------------------|
G||-7-7-7-7-7-7-7-7-----------------|-----------------7-7-7-7-7-7-7-7-|
D||-7-7-7-7-7-7-7-7-7-7-7-7-7-7-7-7-|-2-2-2-2-2-2-2-2-7-7-7-7-7-7-7-7-|
A||-5-5-5-5-5-5-5-5-7-7-7-7-7-7-7-7-|-2-2-2-2-2-2-2-2-5-5-5-5-5-5-5-5-|
D||-----------------7-7-7-7-7-7-7-7-|-2-2-2-2-2-2-2-2-----------------|

    D5              A5                E5              F5      E5  
E||---------------------------------|---------------------------------|
B||---------------------------------|---------------------------------|
G||-7-7-7-7-7-7-7-7-----------------|-----------------3-------2-------|
D||-7-7-7-7-7-7-7-7-7-7-7-7-7-7-7-7-|-2-2-2-2-2-2-2-2-3-------2-------|
A||-5-5-5-5-5-5-5-5-7-7-7-7-7-7-7-7-|-2-2-2-2-2-2-2-2-3-------2-------|
D||-----------------7-7-7-7-7-7-7-7-|-2-2-2-2-2-2-2-2-----------------|

then play the intro/chorus again along with this to end it...

    D5
E||-----------|
B||-3~~~~~~~~-|
G||-2~~~~~~~~-|
D||-0~~~~~~~~-| hold this chord till the end
A||-0~~~~~~~~-|
D||-0~~~~~~~~-|

thats all, enjoy :)
Tap to rate this tab
# A B C D E F G H I J K L M N O P Q R S T U V W X Y Z