Song name
# A B C D E F G H I J K L M N O P Q R S T U V W X Y Z

Lostprophets - Goodbye Tonight chords

Highlighted       Show chord diagrams
[Plectrum needed]

Verse 1:

Tonight, I felt stronger...
  E|----2---|
  B|-3---3--|  [Repeat throughout the whole verse]
  G|--4---4-|
  D|5--5---5|   
  A|--------|
  E|--------|

Verse 2:
Cadd9       Dadd9            Emadd9      D
I just want you to understand, theirs no need to keep waiting.
Cadd9   Dadd9          Emadd9         D       
Another day in another hand, it could be so different.
Cadd9    Dadd9               Emadd9
A Letter to me, your wasting time, 
             D
You know you could be, Yea you could try
Cadd9              Dadd9
But Tonight you'll get it right, 
Emadd9          D             
You will make a difference... 

Chorus:

C   D        Em       G      
  Tonight, Tonight, Tonight, 
               C
I Feel stronger, 
    D       Em        G
Goodbye, Goodbye, Goodbye, 
           C          D      Em         G
If i could see through, even so far away
            C        D        Em              G
Its all you need too, make it through another day.

E|15-14-----|---15-14-----|
B|-----12-15|-12-----12-15|
G|------------------------|
D|------------------------|
A|------------------------|
E|------------------------|

Verse 3:

[The same as Verse 1]

Verse 4:

[The same as verse 2]

[Chorus]Then...

E|--14-15|  [Repeat as many times as the song]
B|12-----|
G|-------|
D|-------|
A|-------|
E|-------|

[Chorus] 

Outro:

E|10-12-14-10-12-14-10-12-14-10-12-14|12-14-15-12-14-15-12-14-15-12-14-15|
B|-----------------------------------|-----------------------------------|
G|-----------------------------------|-----------------------------------|
D|-----------------------------------|-----------------------------------|
A|-----------------------------------|-----------------------------------|
E|-----------------------------------|-----------------------------------|

[Repeat twice] 

End on:

E|12|
B|--|
G|--|
D|--|
A|--|
E|--|

Hope it helps :))
Tap to rate this tab
# A B C D E F G H I J K L M N O P Q R S T U V W X Y Z