Song name
# A B C D E F G H I J K L M N O P Q R S T U V W X Y Z

Lostprophets - Sunshine tab

Intro Lostprophets - Sunshine
Tuning Drop D
Made by - Noriyuki



E------------------------------------14----------14----------14-------|
B------------12----------12--------------12----------12----------12---|
G----13--13------13--13------13--13----------13----------13-----------|
D---------------------------------------------------------------------|
A---------------------------------------------------------------------|
D---------------------------------------------------------------------|

---------14----------14--------------11----------11----------11-------|
-------------12----------12--------------14----------14----------14---|
-----15----------15----------15--13----------13----------13-----------|
----------------------------------------------------------------------|
----------------------------------------------------------------------|
----------------------------------------------------------------------|

---------16----------16--------------14----------14----------14-------|
-------------16----------16--------------12----------12----------12---|
-----13----------13----------13--13----------13----------13-----------|
----------------------------------------------------------------------|
----------------------------------------------------------------------|
----------------------------------------------------------------------|

---------14----------14----------14----------14----------14-----------|
-------------12----------12----------12----------12----------12-------|
-----15----------15----------15----------15----------15----------15---|
----------------------------------------------------------------------|
----------------------------------------------------------------------|
----------------------------------------------------------------------|

---------16----------16--------------14----------14----------14-------|
-------------16----------16--------------12----------12----------12---|
-----13----------13----------13--13----------13----------13-----------|
----------------------------------------------------------------------|
----------------------------------------------------------------------|
----------------------------------------------------------------------|

---------14----------14--------------11----------11----------11-------|
-------------12----------12--------------14----------14----------14---|
-----15----------15----------15--13----------13----------13-----------|
----------------------------------------------------------------------|
----------------------------------------------------------------------|
----------------------------------------------------------------------|

---------16----------16--------------14----------14----------14-------|
-------------16----------16--------------12----------12----------12---|
-----13----------13----------13--13----------13----------13-----------|
----------------------------------------------------------------------|
----------------------------------------------------------------------|
----------------------------------------------------------------------|

---------14----------14----------14----------14----------14-----------|
-------------12----------12----------12----------12----------12-------|
-----15----------15----------15----------15----------15----------15---|
----------------------------------------------------------------------|
----------------------------------------------------------------------|
----------------------------------------------------------------------|

---------16----------16--------------14----------14----------14-------|
-------------16----------16--------------12----------12----------12---|
-----13----------13----------13--13----------13----------13-----------|
----------------------------------------------------------------------|
----------------------------------------------------------------------|
----------------------------------------------------------------------|

---------14----------14--------------11----------11----------11-------|
-------------12----------12--------------14----------14----------14---|
-----15----------15----------15--13----------13----------13-----------|
----------------------------------------------------------------------|
----------------------------------------------------------------------|
----------------------------------------------------------------------|

---------16----------16--------------14----------14----------14-------|
-------------16----------16--------------12----------12----------12---|
-----13----------13----------13--13----------13----------13-----------|
----------------------------------------------------------------------|
----------------------------------------------------------------------|
----------------------------------------------------------------------|

---------14----------14----------14----------14----------14-----------|
-------------12----------12----------12----------12----------12-------|
-----15----------15----------15----------15----------15----------15---|
----------------------------------------------------------------------|
----------------------------------------------------------------------|
----------------------------------------------------------------------|

Please rate it
Tap to rate this tab
 
# A B C D E F G H I J K L M N O P Q R S T U V W X Y Z