Lostprophets - Last Summer tab

Artist: Lost Prophets
Title: Last Summer
Album: Start Something
Tuning: Drop D 
Tabber: Destamoon






Intro (Lead): x10
|-0-0-0-7-0-5-0-3-0-0-0-0-3-0-5h7-|
|---------------------------------|
|---------------------------------|  
|---------------------------------|
|---------------------------------|
|---------------------------------|
PM. . .   .   . . . . . . . .



Intro (Rhythm): x4
|---------------------|
|-------8-7--3--------|
|-------7-7--0--------| 
|-------x-x--x--------|
|-7-7-7-7-7--3--------|
|---------------------|
PM. . . 



Verse (Lead):  x6
|--------------------------------------------------------------------------|
|-----3---3-------------3---3--------------3---3---------------3---3-------|
|---0-------0----0-----0------0----0-----0-------0----0------0-------0----0|
|--------------------------------------------------------------------------|
|-3------------3-----------------------------------------------------------|
|--------------------5-----------5-----4------------4------4------------4--|



Verse (Rhythm): Played after a few times of the Lead 
|------------------------|
|------------------------|
|-5--------------7-------| x2
|-5------5-------7-------|
|-3------5-------5-------|
|--------5---------------|


Pre-Chorus (Both Guitars): x1
|-----------------------------------------|
|-----------------------------------------|
|-5-5-5-5-5-5-5-5-5-5-4-4-4-4-4-4-4-4-5-5-|
|-5-5-5-5-5-5-5-5-5-5-5-5-5-5-5-5-5-5-5-5-|
|-3-3-3-3-3-3-3-3-3-3-2-2-2-2-2-2-2-2-3-3-|
|-----------------------------------------|
PM. . . . . . . . . . . . . . . . . . . .



Chorus (Rhythm): x4
|-------------------------------------------------------------------|
|-------------------------------------------------------------------|
|-7-7-7-7-7-7-7-7--4-4-4-4-4-4-4-4--5-5-5-5-5-5-5-5-5-5-5-5-5--9-9-9|
|-7-7-7-7-7-7-7-7--5-5-5-5-5-5-5-5--5-5-5-5-5-5-5-5-5-5-5-5-5--9-9-9|
|-5-5-5-5-5-5-5-5--2-2-2-2-2-2-2-2--3-3-3-3-3-3-3-3-3-3-3-3-3--7-7-7|
|-------------------------------------------------------------------|



Interlude (Lead): x4
|-0-0-0-7-0-5-0-3-0-0-0-0-3-0-5h7-|
|---------------------------------|
|---------------------------------|  
|---------------------------------|
|---------------------------------|
|---------------------------------|
PM. . .   .   . . . . . . . .



Interlude (Rhythm): x4
|---------------------|
|-------8-7--3--------|
|-------7-7--0--------| 
|-------x-x--x--------|
|-7-7-7-7-7--3--------|
|---------------------|
PM. . . 



Verse (Lead):  x6
|--------------------------------------------------------------------------|
|-----3---3-------------3---3--------------3---3---------------3---3-------|
|---0-------0----0-----0------0----0-----0-------0----0------0-------0----0|
|--------------------------------------------------------------------------|
|-3------------3-----------------------------------------------------------|
|--------------------5-----------5-----4------------4------4------------4--|



Verse (Rhythm): Played after a few times of the Lead 
|------------------------|
|------------------------|
|-5--------------7-------| x2
|-5------5-------7-------|
|-3------5-------5-------|
|--------5---------------|



Pre-Chorus (Both Guitars): x1
|-----------------------------------------|
|-----------------------------------------|
|-5-5-5-5-5-5-5-5-5-5-4-4-4-4-4-4-4-4-5-5-|
|-5-5-5-5-5-5-5-5-5-5-5-5-5-5-5-5-5-5-5-5-|
|-3-3-3-3-3-3-3-3-3-3-2-2-2-2-2-2-2-2-3-3-|
|-----------------------------------------|
PM. . . . . . . . . . . . . . . . . . . .



Chorus (Rhythm): x4
|-------------------------------------------------------------------|
|-------------------------------------------------------------------|
|-7-7-7-7-7-7-7-7--4-4-4-4-4-4-4-4--5-5-5-5-5-5-5-5-5-5-5-5-5--9-9-9|
|-7-7-7-7-7-7-7-7--5-5-5-5-5-5-5-5--5-5-5-5-5-5-5-5-5-5-5-5-5--9-9-9|
|-5-5-5-5-5-5-5-5--2-2-2-2-2-2-2-2--3-3-3-3-3-3-3-3-3-3-3-3-3--7-7-7|
|-------------------------------------------------------------------|



Interlude (Lead): x4
|-0-0-0-7-0-5-0-3-0-0-0-0-3-0-5h7-|
|---------------------------------|
|---------------------------------|  
|---------------------------------|
|---------------------------------|
|---------------------------------|
PM. . .   .   . . . . . . . .



Interlude (Rhythm): x4
|---------------------|
|-------8-7--3--------|
|-------7-7--0--------| 
|-------x-x--x--------|
|-7-7-7-7-7--3--------|
|---------------------|
PM. . . 



Solo Pt.1 (Lead): 
|----------------------------15--14----|
|-/15-15-15-15----------------------15-|
|--------------14-12-12-12-------------| x3
|--------------------------------------|
|--------------------------------------|
|--------------------------------------|

|-15-14-----15-14-----17-14----19-14----|
|-------15--------15--------15-------15-|
|---------------------------------------|
|---------------------------------------|
|---------------------------------------|
|---------------------------------------|



Solo Pt.2 (Lead): 
|----------------------------15--14----|
|-/15-15-15-15----------------------15-|
|--------------14-12-12-12-------------| x2
|--------------------------------------|
|--------------------------------------|
|--------------------------------------|

|------------------------------------------------------------------------------|
|-15b17r15--15b17r15--15b17r15--15b17r15---------------------------------------|
|------------------------------------------14b16r14--14b16r14-12-12-11-12-11---|
|----------------------------------------------------------------------------12|
|------------------------------------------------------------------------------|
|------------------------------------------------------------------------------|



Solo Pt.2 (Rhythm): x1
|-----------------------------|
|-8---------------------------|
|-7--------7--------4--------5|
|-5--------5--------5--------5|
|-7--------3--------2--------3|
|-----------------------------|


Last Chorus (Lead): x8
|----------------------------15--14----|
|-/15-15-15-15----------------------15-|
|--------------14-12-12-12-------------| 
|--------------------------------------|
|--------------------------------------|
|--------------------------------------|



Last Chorus (Rhythm): x4
|-------------------------------------------------------------------|
|-------------------------------------------------------------------|
|-7-7-7-7-7-7-7-7--4-4-4-4-4-4-4-4--5-5-5-5-5-5-5-5-5-5-5-5-5--9-9-9|
|-7-7-7-7-7-7-7-7--5-5-5-5-5-5-5-5--5-5-5-5-5-5-5-5-5-5-5-5-5--9-9-9|
|-5-5-5-5-5-5-5-5--2-2-2-2-2-2-2-2--3-3-3-3-3-3-3-3-3-3-3-3-3--7-7-7|
|-------------------------------------------------------------------|





The memories I hope they never fade


-Destamoon

Tap to rate this tab
 
# A B C D E F G H I J K L M N O P Q R S T U V W X Y Z