Lostprophets - Dirty Little Heart tab

E-----------------------14--14----------------------------------------------------------------|
B-16--16-16-17-16-14-----------17-17-16-16-----16--16-16-17-16-14-----------------------------|
G--------------------16--------------------16---------------------16-18----------18-18--------|
D--------------------------------------------------------------------------16-16-------16-16--|
A---------------------------------------------------------------------------------------------|
E---------------------------------------------------------------------------------------------|

E------------------------------------------------------------------------------------------------|
B------------------------------------------------------------------------------------------------|
G------------------------------------------------------------------------------------------------|
D--161616-13----13----13-------------------------------------------------------------------------|
A------------16----16----16-18-16-14-11-14---16---18-18-18-18-18-18-14-16-14---14-16---18---14~--|
E------------------------------------------------------------------------------------------------|
Tap to rate this tab
 
# A B C D E F G H I J K L M N O P Q R S T U V W X Y Z