Song name
# A B C D E F G H I J K L M N O P Q R S T U V W X Y Z

Lostprophets - Darkest Blue tab

Hey everyone, this is my first tab so I hope it will be easy to understand, enjoy!

MAIN RIFF/INTRO

E|---4-6---6-4---4-6---6-4---4-6---4-6---6-4---4-6---6-4---4-6-
B|-------4-----4-----4-----4-----------4-----4-----4-----4-----
G|-------------------------------------------------------------
D|-4-----------------------------------------------------------
A|-------------------------------4-----------------------------
D|-------------------------------------------------------------


E|---4-6---6-4---4-6---6-4---4-6---4-6---6-4---4-6---6-4---4-6-|
B|-------4-----4-----4-----4-----------4-----4-----4-----4-----|
G|-------------------------------------------------------------|
D|-------------------------------------------------------------|
A|-------------------------------------------------------------|
E|-6-----------------------------6-----------------------------|


CHORUS
E|--------------------------------|
B|--------------------------------|
G|----------6---------------------|
D|----4-----6----6------6---------|
A|----4-----4----6------6---------|
D|----4----------6------6---------| 


VERSE

E|-----6-6-6-6--x-6--6-66----------9--9---9---9---x-9---9--9-9------
B|-----7-7-7-7--x-7--7-77----------11-11--11--11--x-11--11-1111-----
G|------------------------------------------------------------------
D|------------------------------------------------------------------
A|------------------------------------------------------------------
D|------------------------------------------------------------------


E|------------------------------------------------------------------|
B|---9-9-9-9--x-8--x8-88--------9-9-9-9--x-8--x88-------------------|
G|---8-8-8-8--x-8--x8-88--------8-8-8-8--x-8--x88-------------------|
D|------------------------------------------------------------------|
A|------------------------------------------------------------------|
D|------------------------------------------------------------------|

PRE-CHORUS

E|-------------------------------------|
B|-------------------------------------|
G|-----------------6-------------------|
D|--8----6----1----6----1--------------|
A|--8----6----1----4----1--------------|
D|--8----6----1---------1--------------|


CHORUS

VERSE 

PRE-CHORUS

CHORUS


SOLO

Gtr 1 (there's some kind of effect so I don't think it's played as fast as it seems, anyway...)

E|--------------------------------------------------------------------
B|-------------------------------------------------6~~~---------------
G|------6~~~--------------6~~~-----------8~~~~~~---------6~~~5~~~-----
D|-8~~~-----6~~~8~~~--8~~~----6~~~8~~~---------------------------6~~~-
A|--------------------------------------------------------------------
D|--------------------------------------------------------------------

Gtr 2 Rythm


E|-------------------------
B|-------------------------
G|-------------------------
D|---8----8----4----6------
A|---8----8----4----6------
D|---8----8----4----6------


Gtr 1
E|---------------------------------------------------------------6~~~~~|
B|-------------------------------------------6~~~----9~~~6~~~9~~~------|
G|-----6~~~--------------6~~~--------8~~~6~~~----8~~~------------------|
D|-8~~~----6~~~8~~~--8~~~----6~~~8~~~----------------------------------|
A|---------------------------------------------------------------------|
D|---------------------------------------------------------------------|

Gtr 2 Rythm

E|-------------------------------|
B|-------------------------------|
G|-------------------------------|
D|-8----8----4----3--6--4--------|
A|-8----8----4----3--6--4--------|
D|-8----8----4----3--6--4--------|

PRE-CHORUS played by the piano

CHORUS

OUTRO (Same as intro but ends on this)

E|-----4--6-----6--4-----4--6-----6--4-----4--6------11---|
B|-----------4--------4--------4--------4--------4---11---|
G|---------------------------------------------------8----|
D|--------------------------------------------------------|
A|--------------------------------------------------------|
D|--6-----------------------------------------------------|


Well, I think that this is correct, you'll need to listen the song to get the rythm though.

Don't forget to rate and comment !
Tap to rate this tab
 
# A B C D E F G H I J K L M N O P Q R S T U V W X Y Z