Song name
# A B C D E F G H I J K L M N O P Q R S T U V W X Y Z

Lostprophets - Im Not What You Think I Am tab

Lostprophets - I'm not what you think I am
Tuning: DADGBE

Intro:
|-----------------------------------------------------------------|
|-----------------------------------------------------------------|
|-----------------------------------------------------------------|
|-----------------------------------------------------------------|
|-1-1-1-1-1-1-3-4-------------4-6-------------3-4-------------6-4-|
|-----------------4-4-4-4-4-4-----6-6-6-6-6-6-----3-3-3-3-3-3-----|

|-----------------------------------------------------------------|
|-----------------------------------------------------------------|
|-----------------------------------------------------------------|
|-----------------------------------------------------------------|
|-1-1-1-1-1-1-3-4-------------4-6-------------3-4-------------4-6-|
|-----------------4-4-4-4-4-4-----6-6-6-6-6-6-----7-7-7-7-7-7-----| 

Repeat the above twice

Verse: (play on the off-beat)
|----------------|
|----------------|
|--3-3-6-6-8-8-2-|
|--3-3-6-6-8-8-2-| 4x 
|--1-1-4-4-6-6-0-|
|----------------|
(not sure about last chord)

Pre-chorus:
|-------------------------------------|
|-------------------------------------|
|-33333333-66666666-------------------|
|-33333333-66666666-33333333-66666677-| 2x 
|-11111111-44444444-33333333-66666677-|
|-------------------33333333-66666677-|

Chorus:
|----------------|    |-----------------|    |---------------------|
|----------------|    |-----------------|    |---------------------|
|--3-3-6-6-8-8-2-|    |-3-3-6-6---------|    |---------------------|
|--3-3-6-6-8-8-2-| or |-3-3-6-6-3-3-6-7-| 2x |---------------------| 2x
|--1-1-4-4-6-6-0-|    |-1-1-4-4-3-3-6-7-|    |-4444-1111-3333-0000-|
|----------------|    |---------3-3-6-7-|    |---------------------|

Verse:
|----------------|
|----------------|
|--3-3-6-6-8-8-2-|
|--3-3-6-6-8-8-2-| 2x 
|--1-1-4-4-6-6-0-|
|----------------|

Pre-chorus:
|-------------------------------------|
|-------------------------------------|
|-33333333-66666666-------------------|
|-33333333-66666666-33333333-66666677-| 2x 
|-11111111-44444444-33333333-66666677-|
|-------------------33333333-66666677-|

Chorus:
|----------------|    |-----------------|    |---------------------|
|----------------|    |-----------------|    |---------------------|
|--3-3-6-6-8-8-2-|    |-3-3-6-6---------|    |---------------------|
|--3-3-6-6-8-8-2-| or |-3-3-6-6-3-3-6-7-| 2x |---------------------| 2x
|--1-1-4-4-6-6-0-|    |-1-1-4-4-3-3-6-7-|    |-4444-1111-3333-0000-|
|----------------|    |---------3-3-6-7-|    |---------------------| 

Bridge:
|-----------------------------------|
|-----------------------------------|
|-------------11-10-----------------| Play quietly during rest, then loudly
|-88-88-68-68-11-10-88-88-68-68-4-3-| when it comes up
|-88-88-68-68-9--8--88-88-68-68-4-3-|
|-88-88-68-68-------88-88-68-68-4-3-|

Chorus:
|-------------------------------------|
|-------------------------------------|
|-33333333-66666666-------------------|
|-33333333-66666666-33333333-66666677-|  4x
|-11111111-44444444-33333333-66666677-|
|-------------------33333333-66666677-|

or

|-----------------------------------------------------|
|-----------------------------------------------------|
|-33333333-66666666-1010101010101010-1313131313131313-|       10 13 
|-33333333-66666666-1010101010101010-1313131313131313-| 4x    10 13
|-11111111-44444444-8-8-8-8-8-8-8-8--1111111111111111-|       8  11
|-----------------------------------------------------|

Play Bridge:
|-----------------------------------|
|-----------------------------------|
|-------------11-10-----------------| 
|-88-88-68-68-11-10-88-88-68-68-4-3-| 
|-88-88-68-68-9--8--88-88-68-68-4-3-|
|-88-88-68-68-------88-88-68-68-4-3-|

     
Tap to rate this tab
# A B C D E F G H I J K L M N O P Q R S T U V W X Y Z