Song name
# A B C D E F G H I J K L M N O P Q R S T U V W X Y Z

Lostprophets - And She Told Me To Leave tab

#----------------------------------PLEASE NOTE---------------------------------#
#This file is the author's own work and represents their interpretation of the #
#song. You may only use this file for private study, scholarship, or research. #
#------------------------------------------------------------------------------##

                           ...AND SHE TOLD ME TO LEAVE
                          As recorded by Lost Prophets
                  (From the 2000 Album FAKE SOUND OF PROGRESS)

Words and Music by Lost Prophets
Arranged by the_cheeky_chimp@hotmail.com
Transcribed by the_cheeky_chimp@hotmail.com

Gtr I (C G C F A D) - 'clean'
Gtr II (C G C F A D) - 'clean'
Gtr III (C G C F A D) - 'distortion'
Gtr IV (C G C F A D) - 'overdriven'
Gtr V (C G C F A D) - 'clean'

   Intro
    Q=155
    D               E                D               E
   4/4
    Gtr I
    Q.    Q  Q  E    E  E H     Q    Q.    Q  Q  E    E  E H     Q
||----------------|----------------|---------------|-----------------||
||o-------3-------|-------3-----3--|-------3-------|-------3-----3--o||
||-----------0----|-----0----------|----------0----|-----0-----------||
||--2-----------4-|-(4)------0-----|-2-----------4-|-(4)------0------||
||o---------------|----------------|---------------|----------------o||
||----------------|----------------|---------------|-----------------||
    H..         E   +H       H       H..         E   +H       H


  $
  D               E                D               E
  Q.    Q  Q  E    E  E H     Q    Q.    Q  Q  E    E  E H     Q
|---------------|----------------|---------------|----------------|
|-------3-------|-------3-----3--|-------3-------|-------3-----3--|
|----------0----|-----0----------|----------0----|-----0----------|
|-2-----------4-|-(4)------0-----|-2-----------4-|-(4)------0-----|
|---------------|----------------|---------------|----------------|
|---------------|----------------|---------------|----------------|
  H..         E   +H       H       H..         E   +H       H


  D               E                D               E
  Q.    Q  Q  E    E  E H     Q    Q.    Q  Q  E    E  E Q  Q  Q
|---------------|----------------|---------------|-------0--------|
|-------3-------|-------3-----3--|-------3-------|----------3-----|
|----------0----|-----0----------|----------0----|-----0-------0--|
|-2-----------4-|-(4)------0-----|-2-----------4-|-(4)------------|
|---------------|----------------|---------------|----------------|
|---------------|----------------|---------------|----------------|
  H..         E   +H       H       H..         E   +W


   Verse
    D     F5/D              F5/E  F5/C       F5/D              F5/E  F5/C
    Gtr I
    Q.    Q   Q   E    E  E H     Q    Q.    Q   Q   E    E  E H     Q
||------------------|----------------|-----------------|------------------||
||o-------3---------|-------3-----3--|-------3---------|-------3-----3---o||
||------------0-----|-----0----------|-----------0-----|-----0------------||
||--2-------------4-|-(4)------0-----|-2-------------4-|-(4)------0-------||
||o-----------------|----------------|-----------------|-----------------o||
||------------------|----------------|-----------------|------------------||
|   H..           E   +H       H       H..           E   +H       H
|
|   Gtr II
|   Q.    Q  +Q   E   +Q    Q  Q  Q    Q.    Q  +Q   E   +Q    Q  Q  Q
||------------------|----------------|-----------------|------------------||
||o-------3--(3)----|-------3-----3--|-------3--(3)----|-------3-----3---o||
||--------0--(0)----|-------0-----0--|-------0--(0)----|-------0-----0----||
||--2-----2--(2)--4-|-(4)---4--0--0--|-2-----2--(2)--4-|-(4)---4--0--0----||
||o-----------------|----------------|-----------------|-----------------o||
||------------------|----------------|-----------------|------------------||


        Dm7               Dm7/E Dm7/C      Dm7               Dm7/E Dm7/C
  Q.    Q   Q   E    E  E H     Q    Q.    Q   Q   E    E  E H     Q
|-----------------|----------------|-----------------|----------------|
|-------3---------|-------3-----3--|-------3---------|-------3-----3--|
|-----------0-----|-----0----------|-----------0-----|-----0----------|
|-2-------------4-|-(4)------0-----|-2-------------4-|-(4)------0-----|
|-----------------|----------------|-----------------|----------------|
|-----------------|----------------|-----------------|----------------|
| H..           E   +H       H       H..           E   +H       H
|
| Q.    Q  +Q   E   +Q    Q  Q  Q    Q.    Q  +Q   E   +Q    Q  Q  Q
|-------0--(0)----|-------0-----0--|-------0--(0)----|-------0-----0--|
|-------3--(3)----|-------3-----3--|-------3--(3)----|-------3-----3--|
|-------0--(0)----|-------0-----0--|-------0--(0)----|-------0-----0--|
|-2-----2--(2)--4-|-(4)---4--0--0--|-2-----2--(2)--4-|-(4)---4--0--0--|
|-----------------|----------------|-----------------|----------------|
|-----------------|----------------|-----------------|----------------|


        Dm7               Dm7/E Dm7/C      Dm7               Dm7/E
  Q.    Q   Q   E    E  E H     Q    Q.    Q   Q   E    E  E H     E E
|-----------------|----------------|-----------------|-------------0---|
|-------3---------|-------3-----3--|-------3---------|-------3-------3-|
|-----------0-----|-----0----------|-----------0-----|-----0-----------|
|-2-------------4-|-(4)------0-----|-2-------------4-|-(4)------0------|
|-----------------|----------------|-----------------|-----------------|
|-----------------|----------------|-----------------|-----------------|
| H..           E   +H       H       H..           E   +H       H
|
| Q.    Q  +Q   E   +Q    Q  Q  Q    Q.    Q  +Q   E   +Q    Q  Q  Q
|-------0--(0)----|-------0-----0--|-------0--(0)----|-------0---------|
|-------3--(3)----|-------3-----3--|-------3--(3)----|-------3-----3---|
|-------0--(0)----|-------0-----0--|-------0--(0)----|-------0-----0---|
|-2-----2--(2)--4-|-(4)---4--0--0--|-2-----2--(2)--4-|-(4)---4--0------|
|-----------------|----------------|-----------------|-----------------|
|-----------------|----------------|-----------------|-----------------|


        Dm7               Dm7/E Dm7/C      Dm7               Dm7/E Dm7/C
  Q.    Q   Q   E    E  E H     Q    Q.    Q   Q   E    E  E H     Q
|-----------------|----------------|-----------------|----------------|
|-------3---------|-------3-----3--|-------3---------|-------3-----3--|
|-----------0-----|-----0----------|-----------0-----|-----0----------|
|-2-------------4-|-(4)------0-----|-2-------------4-|-(4)------0-----|
|-----------------|----------------|-----------------|----------------|
|-----------------|----------------|-----------------|----------------|
| H..           E   +H       H       H..           E   +H       H
|
| Q.    Q  +Q   E   +Q    Q  Q  Q    Q.    Q  +Q   E   +Q    Q  Q  Q
|-------0--(0)----|-------0-----0--|-------0--(0)----|-------0-----0--|
|-------3--(3)----|-------3-----3--|-------3--(3)----|-------3-----3--|
|-------0--(0)----|-------0-----0--|-------0--(0)----|-------0-----0--|
|-2-----2--(2)--4-|-(4)---4--0--0--|-2-----2--(2)--4-|-(4)---4--0--0--|
|-----------------|----------------|-----------------|----------------|
|-----------------|----------------|-----------------|----------------|


        Dm7               Dm7/E Dm7/C      Dm7               Dm7/E
  Q.    Q   Q   E    E  E H     Q    Q.    Q   Q   E    E  E H     E E
|-----------------|----------------|-----------------|-------------0---|
|-------3---------|-------3-----3--|-------3---------|-------3-------3-|
|-----------0-----|-----0----------|-----------0-----|-----0-----------|
|-2-------------4-|-(4)------0-----|-2-------------4-|-(4)------0------|
|-----------------|----------------|-----------------|-----------------|
|-----------------|----------------|-----------------|-----------------|
| H..           E   +H       H       H..           E   +H       H
|
| Q.    Q  +Q   E   +Q    Q  Q  Q    Q.    Q  +Q   E   +Q    Q  Q  Q
|-------0--(0)----|-------0-----0--|-------0--(0)----|-------0---------|
|-------3--(3)----|-------3-----3--|-------3--(3)----|-------3-----3---|
|-------0--(0)----|-------0-----0--|-------0--(0)----|-------0-----0---|
|-2-----2--(2)--4-|-(4)---4--0--0--|-2-----2--(2)--4-|-(4)---4--0------|
|-----------------|----------------|-----------------|-----------------|
|-----------------|----------------|-----------------|-----------------|


 Pre-Chorus
  F5/D                F5        F5/D                F5
  Gtr III
  E E E E H      H    E E E E   E E E E H      H    E E E E
|-3-3-3--------|------3-3-3-3-|-3-3-3--------|------3-3-3-3-|
|-3-3-3--------|------3-3-3-3-|-3-3-3--------|------3-3-3-3-|
|-0-0-0--------|------0-0-0-0-|-0-0-0--------|------0-0-0-0-|
|-2-2-2--------|--------------|-2-2-2--------|--------------|
|--------------|--------------|--------------|--------------|
|--------------|--------------|--------------|--------------|


  F5/D                F5        F5/D                        F5
  E E E E H      H    E E E E   E E E E H       H            E   E   E   E
|-3-3-3--------|------3-3-3-3-|-3-3-3--------|---------------3---3---3---3--|
|-3-3-3--------|------3-3-3-3-|-3-3-3--------|---------------3---3---3---3--|
|-0-0-0--------|------0-0-0-0-|-0-0-0--------|---------------0---0---0---0--|
|-2-2-2--------|--------------|-2-2-2--------|------------------------------|
|--------------|--------------|--------------|------------------------------|
|--------------|--------------|--------------|------------------------------|
|
| Gtr IV
| W              W              W               E   Q    E   E   E   E   E
|--------------|--------------|--------------|-<7>-<7>----------------------|
|--------------|--------------|--------------|----------<7>-<7>-<7>---------|
|--------------|--------------|--------------|----------------------<7>-<7>-|
|--------------|--------------|--------------|------------------------------|
|--------------|--------------|--------------|------------------------------|
|--------------|--------------|--------------|------------------------------|


  F5/D                F5        F5/D                F5
  E E E E H      H    E E E E   E E E E H      H    E E E E
|-3-3-3--------|------3-3-3-3-|-3-3-3--------|------3-3-3-3-|
|-3-3-3--------|------3-3-3-3-|-3-3-3--------|------3-3-3-3-|
|-0-0-0--------|------0-0-0-0-|-0-0-0--------|------0-0-0-0-|
|-2-2-2--------|--------------|-2-2-2--------|--------------|
|--------------|--------------|--------------|--------------|
|--------------|--------------|--------------|--------------|


  F5/D                F5        D5   F5/D    C5       Dm7/C
  E E E E H      H    E E E E   Q.   Q   Q   E   +Q   H.
|-3-3-3--------|------3-3-3-3-|------3---3-----|------0-----|
|-3-3-3--------|------3-3-3-3-|------3--(3)----|------3-----|
|-0-0-0--------|------0-0-0-0-|------0--(0)----|------0-----|
|-2-2-2--------|--------------|-2----2--(2)--0-|-(0)--0-----|
|--------------|--------------|-2------------0-|-(0)--------|
|--------------|--------------|-2------------0-|-(0)--------|


   Chorus
    Q=181
    D5                C5 D5       C5 D5    E5    D5
    Gtr III
     H           Q     E  E   +E   E  Q     Q     Q
||--------------------------|--------------------------|
||o-------------------------|--------------------------|
||--------------------------|--------------------------|
||--------------------------|--------------------------|
||o--2-----------2-----0--2-|-(2)--0--2-----4-----2----|
||---2-----------2-----0--2-|-(2)--0--2-----4-----2----|
|
|   Gtr IV
|    E  E  E  E  E  E  E  E    E   E  E  E  E  E  E  E
||--12----------------12----|--------------10----------|
||o----12-10-12-13-12----12-|-10--12-13-12----12-13-12-|
||--------------------------|--------------------------|
||--------------------------|--------------------------|
||o-------------------------|--------------------------|
||--------------------------|--------------------------|


                    C5 D5       C5 D5    E5    D5
   H           Q     E  E   +E   E  Q     Q     Q
|-------------------------|---------------------------|
|-------------------------|---------------------------|
|-------------------------|---------------------------|
|-------------------------|---------------------------|
|--2-----------2-----0--2-|-(2)--0--2-----4-----2-----|
|--2-----------2-----0--2-|-(2)--0--2-----4-----2-----|
|
|  E  E  E  E  E  E  E  E    E   E  E  E  E  E  E  E
|-12----------------12----|--------------10-----------|
|----12-10-12-13-12----12-|-10--12-13-12----12-13-12--|
|-------------------------|---------------------------|
|-------------------------|---------------------------|
|-------------------------|---------------------------|
|-------------------------|---------------------------|


  F5        E5        F5/D
   Q.        Q.        Q      +W
|----------------------3----|-(3)----------------------|
|----------------------3----|-(3)----------------------|
|----------------------0----|-(0)----------------------|
|--5---------4---------2----|-(2)----------------------|
|--5---------4--------------|--------------------------|
|--5---------4--------------|--------------------------|
|
|  E   E  E  E   E  E  E  E    E   E  E  E  E  E  E  E
|-12------------------12----|--------------10----------|
|-----12-10-12--13-12----12-|-10--12-13-12----12-13-12-|
|---------------------------|--------------------------|
|---------------------------|--------------------------|
|---------------------------|--------------------------|
|---------------------------|--------------------------|


  F5        E5        C5
   Q.        Q.        Q      +H.                 E  E
|---------------------------|--------------------------|
|---------------------------|--------------------------|
|---------------------------|--------------------------|
|--5---------4---------7----|-(7)-----------------x--x-|
|--5---------4---------5----|-(5)-----------------x--x-|
|--5---------4---------0----|-(0)-----------------x--x-|
|
|  E   E  E  E   E  E  E  E    E   E  E  E  E  E  E  E
|-12------------------12----|--------------10----------|
|-----12-10-12--13-12----12-|-10--12-13-12----12-13-12-|
|---------------------------|--------------------------|
|---------------------------|--------------------------|
|---------------------------|--------------------------|
|---------------------------|--------------------------|


  D5                C5 D5       C5 D5    E5    D5
   H           Q     E  E   +E   E  Q     Q     Q
|-------------------------|--------------------------|
|-------------------------|--------------------------|
|-------------------------|--------------------------|
|-------------------------|--------------------------|
|--2-----------2-----0--2-|-(2)--0--2-----4-----2----|
|--2-----------2-----0--2-|-(2)--0--2-----4-----2----|
|
|  E  E  E  E  E  E  E  E    E   E  E  E  E  E  E  E
|-12----------------12----|--------------10----------|
|----12-10-12-13-12----12-|-10--12-13-12----12-13-12-|
|-------------------------|--------------------------|
|-------------------------|--------------------------|
|-------------------------|--------------------------|
|-------------------------|--------------------------|


                    C5 D5       C5 D5    E5    D5
   H           Q     E  E   +E   E  Q     Q     Q
|-------------------------|--------------------------|
|-------------------------|--------------------------|
|-------------------------|--------------------------|
|-------------------------|--------------------------|
|--2-----------2-----0--2-|-(2)--0--2-----4-----2----|
|--2-----------2-----0--2-|-(2)--0--2-----4-----2----|
|
|  E  E  E  E  E  E  E  E    E   E  E  E  E  E  E  E
|-12----------------12----|--------------10----------|
|----12-10-12-13-12----12-|-10--12-13-12----12-13-12-|
|-------------------------|--------------------------|
|-------------------------|--------------------------|
|-------------------------|--------------------------|
|-------------------------|--------------------------|


                                                                       D.S.
  F5    E5    F5/D                      F5    E5    C5
   Q.    Q.    Q     +W                  Q.    Q.    Q     +W
|--------------3--|--(3)--------------|-----------------|--------------------||
|--------------3--|--(3)--------------|-----------------|-------------------o||
|--------------0--|--(0)--------------|-----------------|--------------------||
|--5-----4-----2--|--(2)--------------|--5-----4-----7--|--(7)---------------||
|--5-----4--------|-------------------|--5-----4-----5--|--(5)--------------o||
|--5-----4--------|-------------------|--5-----4-----0--|--(0)---------------||
|
|  Q.    Q.    Q     +Q    Q   Q   Q     Q.    Q.    Q     +Q    Q   Q   Q
|-----------------|-----------10------|-------------10--|-(10)---------------||
|-13----12----13--|-(13)--12------12--|-13----12--------|-------12--13--12--o||
|-----------------|-------------------|-----------------|--------------------||
|-----------------|-------------------|-----------------|--------------------||
|-----------------|-------------------|-----------------|-------------------o||
|-----------------|-------------------|-----------------|--------------------||


 Outro
  F                               Fsus2                               Bb
  Gtrs I, II
  E E E E E E E E   E E E E E E E E   E E E E E E E E   E E E E E E E  E
|-7-7-7-7-7-7---7-|---7-7-7-7-7---5-|---5-5-5-5-5---5-|---5-5-5-5-5---12-|
|-8-8-8-8-8-8---8-|---8-8-8-8-8---8-|---8-8-8-8-8---8-|---8-8-8-8-8---13-|
|-----------------|-----------------|-----------------|------------------|
|-----------------|-----------------|-----------------|------------------|
|-----------------|-----------------|-----------------|------------------|
|-----------------|-----------------|-----------------|------------------|


                                             F5/C
  E  E  E  E  E  E E  E   E  E  E  E  E  E E  E
|---12-12-12-12-12---12-|---12-12-12-12-12---15-|
|---13-13-13-13-13---13-|---13-13-13-13-13---15-|
|-----------------------|-----------------------|
|-----------------------|-----------------------|
|-----------------------|-----------------------|
|-----------------------|-----------------------|


                     Am/C            F5/C    F
  E  E  E  E  E  E E  E   E  E  E  E  E  E E E
|---15-15-15-15-15---19-|---19-19-19-15-15---7-|
|---15-15-15-15-15---15-|---15-15-15-15-15---8-|
|-----------------------|----------------------|
|-----------------------|----------------------|
|-----------------------|----------------------|
|-----------------------|----------------------|


                                  Fsus2                               Bb
  E E E E E E E E   E E E E E E E E   E E E E E E E E   E E E E E E E  E
|---7-7-7-7-7---7-|---7-7-7-7-7---5-|---5-5-5-5-5---5-|---5-5-5-5-5---12-|
|---8-8-8-8-8---8-|---8-8-8-8-8---8-|---8-8-8-8-8---8-|---8-8-8-8-8---13-|
|-----------------|-----------------|-----------------|------------------|
|-----------------|-----------------|-----------------|------------------|
|-----------------|-----------------|-----------------|------------------|
|-----------------|-----------------|-----------------|------------------|


                                             Cm
  E  E  E  E  E  E E  E   E  E  E  E  E  E E  E
|---12-12-12-12-12---12-|---12-12-12-12-12---13-|
|---13-13-13-13-13---13-|---13-13-13-13-13---15-|
|-----------------------|-----------------------|
|-----------------------|-----------------------|
|-----------------------|-----------------------|
|-----------------------|-----------------------|


                     Bb                      F
  E  E  E  E  E  E E  E   E  E  E  E  E  E E E
|---13-13-13-13-13---12-|---12-12-12-12-12---7-|
|---15-15-15-15-15---13-|---13-13-13-13-13---8-|
|-----------------------|----------------------|
|-----------------------|----------------------|
|-----------------------|----------------------|
|-----------------------|----------------------|


 Outro Solo
     F                                       Fsus2
  Gtr I
   E E  E E  E  E E  E     E   E E  E E  E E  E
|----7--7-7--7--7----7-|-------7-7--7-7--7----5-|
|----8--8-8--8--8----8-|-------8-8--8-8--8----8-|
|----------------------|------------------------|
|----------------------|------------------------|
|----------------------|------------------------|
|----------------------|------------------------|
|
| Gtrs III, V
|  q    q    E  Q    E    +E   Q    Q    Q    E
|----------------------|------------------------|
|----------------------|------------------------|
|-16---14------14------|------------------------|
|-----------17------17-|-(17)-16---14-----------|
|----------------------|----------------14---14h|
|----------------------|------------------------|


                                       Bb
   E E E E E E E E     E  E E E E E  E  E
|----5-5-5-5-5---5-|------5-5-5-5-5----12-|
|----8-8-8-8-8---8-|------8-8-8-8-8----13-|
|------------------|----------------------|
|------------------|----------------------|
|------------------|----------------------|
|------------------|----------------------|
|
|  ~~~~~~~~~~~~~~~~~~~~~~~
|  W                  +H.            Q
|------------------|----------------------|
|------------------|----------------------|
|------------------|----------------16----|
|------------------|----------------------|
|-15---------------|-(15)-----------------|
|------------------|----------------------|


                                                 F5/C
   E  E  E  E  E  E  E  E    E  E  E  E  E  E  E  E
|----12-12-12-12-12----12-|----12-12-12-12-12----15-|
|----13-13-13-13-13----13-|----13-13-13-13-13----15-|
|-------------------------|-------------------------|
|-------------------------|-------------------------|
|-------------------------|-------------------------|
|-------------------------|-------------------------|
|
|  Q     Q     Q     Q       Q     Q     Q     Q
|-------------------------|-------------------------|
|-17----------19----------|-20----------19----------|
|-------16----------16----|-------16----------16----|
|-------------------------|-------------------------|
|-------------------------|-------------------------|
|-------------------------|-------------------------|


                       Am/C                       F
   E  E  E  E  E  E  E  E     E   E  E  E  E  E E E
|----15-15-15-15-15----19-|------19-19-19-15-15---7-|
|----15-15-15-15-15----15-|------15-15-15-15-15---8-|
|-------------------------|-------------------------|
|-------------------------|-------------------------|
|-------------------------|-------------------------|
|-------------------------|-------------------------|
|
|  H           Q     Q       +Q      Q     H
|-------------------------|-------------------------|
|-17----------17S===15----|-(15)S===17----17--------|
|-16----------16S===14----|-(14)S===16----16--------|
|-------------------------|-------------------------|
|-------------------------|-------------------------|
|-------------------------|-------------------------|


                                             Fsus2
   E  E E  E  E E  E E     E  E  E E  E E  E  E
|-----7-7--7--7-7----7-|------7--7-7--7-7-----5-|
|-----8-8--8--8-8----8-|------8--8-8--8-8-----8-|
|----------------------|------------------------|
|----------------------|------------------------|
|----------------------|------------------------|
|----------------------|------------------------|
|
|  Q.      Q.      Q      +Q     Q    Q    E  E
|----------------------|------------------------|
|----------------------|------------------------|
|-12-------------------|------------------------|
|---------14-----------|------------------12-14-|
|-----------------14---|-(14)---12---14---------|
|----------------------|------------------------|


                                             Bb
   E  E E  E  E E  E E     E  E  E E  E E  E  E
|-----5-5--5--5-5----5-|------5--5-5--5-5----12-|
|-----8-8--8--8-8----8-|------8--8-8--8-8----13-|
|----------------------|------------------------|
|----------------------|------------------------|
|----------------------|------------------------|
|----------------------|------------------------|
|
|  Q.      Q.      Q      +Q     Q    Q    E  E
|----------------------|------------------------|
|----------------------|------------------------|
|-12-------------------|------------------------|
|---------14-----------|------------------12-14-|
|-----------------14---|-(14)---12---14---------|
|----------------------|------------------------|


                                                    F5/C
   E   E  E  E   E  E  E  E     E   E  E  E  E  E E  E
|-----12-12-12--12-12----12-|------12-12-12-12-12---15-|
|-----13-13-13--13-13----13-|------13-13-13-13-13---15-|
|---------------------------|--------------------------|
|---------------------------|--------------------------|
|---------------------------|--------------------------|
|---------------------------|--------------------------|
|
|  Q.        Q.        Q       +Q      Q     Q    Q
|---------------------------|--------------------------|
|---------------------------|--------------------------|
|-14--------12--------11----|-(11)---------------------|
|---------------------------|---------12----14---------|
|---------------------------|--------------------------|
|---------------------------|--------------------------|


                       Am/C                      F
   E  E  E  E  E  E  E  E    E  E  E  E  E  E  E E
|----15-15-15-15-15----19-|----19-19-19-15-15----7-|
|----15-15-15-15-15----15-|----15-15-15-15-15----8-|
|-------------------------|------------------------|
|-------------------------|------------------------|
|-------------------------|------------------------|
|-------------------------|------------------------|
|
|  E  E  Q     Q     E  E    E  E  Q     Q     Q
|-------------------------|------------------------|
|-------------------------|------------------------|
|-------------14----------|-------12---------------|
|-------12----------------|-12-14-------14----12---|
|-12-14-------------12-14-|------------------------|
|-------------------------|------------------------|


       F                                      Fsus2
     E  E E  E  E E  E  E     E  E E E E E  E E
||------7-7--7--7-7-----7-|------7-7-7-7-7----5-|
||o-----8-8--8--8-8-----8-|------8-8-8-8-8----8-|
||------------------------|---------------------|
||------------------------|---------------------|
||o-----------------------|---------------------|
||------------------------|---------------------|
|
|    E  Q    E  Q    E  E    +H.            Q
||------------------------|---------------------|
||o-----------------------|---------------------|
||--16S14---16S14---16S14-|-(14)-----------14---|
||------------------------|---------------------|
||o-----------------------|---------------------|
||------------------------|---------------------|


                                            Bb
   E  E E  E  E E  E  E     E  E E E E E  E  E
|-----5-5--5--5-5-----5-|------5-5-5-5-5----12--|
|-----8-8--8--8-8-----8-|------8-8-8-8-8----13--|
|-----------------------|-----------------------|
|-----------------------|-----------------------|
|-----------------------|-----------------------|
|-----------------------|-----------------------|
|
|  E  Q    E  Q    E  E    +H.            Q
|-----------------------|-----------------------|
|-----------------------|-----------------------|
|-16S14---16S14---16S14-|-(14)-----------14-----|
|-----------------------|-----------------------|
|-----------------------|-----------------------|
|-----------------------|-----------------------|


                                                   F5/C
   E  E  E  E  E  E  E  E     E   E  E  E  E  E  E  E
|----12-12-12-12-12----12-|------12-12-12-12-12----15-|
|----13-13-13-13-13----13-|------13-13-13-13-13----15-|
|-------------------------|---------------------------|
|-------------------------|---------------------------|
|-------------------------|---------------------------|
|-------------------------|---------------------------|
|
|  E  Q     E  Q     E  E    +H.                 Q
|-------------------------|---------------------------|
|-------------------------|---------------------------|
|-16S14----16S14----16S14-|-(14)----------------14----|
|-------------------------|---------------------------|
|-------------------------|---------------------------|
|-------------------------|---------------------------|


                       Am/C                        F
   E  E  E  E  E  E  E  E     E   E  E  E  E  E  E E  4x
|----15-15-15-15-15----19-|------19-19-19-15-15----7--||
|----15-15-15-15-15----15-|------15-15-15-15-15----8-o||
|-------------------------|---------------------------||
|-------------------------|---------------------------||
|-------------------------|--------------------------o||
|-------------------------|---------------------------||
|
|  E  Q     E  Q     E  E    +H.                 Q    4x
|-------------------------|---------------------------||
|-------------------------|--------------------------o||
|-16S14----16S14----16S14-|-(14)----------------14----||
|-------------------------|---------------------------||
|-------------------------|--------------------------o||
|-------------------------|---------------------------||


Duration Legend
---------------
W - whole; H - half; Q - quarter; E - 8th; S - 16th; T - 32nd; X - 64th; a - acciaccatura
+ - note tied to previous; . - note dotted; .. - note double dotted
Uncapitalized letters represent notes that are staccato (1/2 duration)
Irregular groupings are notated above the duration line
Duration letters will always appear directly above the note/fret number it represents the
duration for.  Duration letters with no fret number below them represent rests.  Multi-
bar rests are notated in the form Wxn, where n is the number of bars to rest for.  Low
melody durations appear below the staff

Tablature Legend
----------------
 h   - hammer-on
 p   - pull-off
 b   - bend
 pb  - pre-bend
 r   - bend release (if no number after the r, then release immediately)
 /\  - slide into or out of (from/to "nowhere")
 s   - legato slide
 S   - shift slide
  - natural harmonic
[n]  - artificial harmonic
n(n) - tapped harmonic
 ~   - vibrato
 tr  - trill
 T   - tap
 TP  - trem. picking
 PM  - palm muting
\n/  - tremolo bar dip; n = amount to dip
 \n  - tremolo bar down
 n/  - tremolo bar up
/n\  - tremolo bar inverted dip
 =   - hold bend; also acts as connecting device for hammers/pulls
 <>  - volume swell (louder/softer)
 x   - on rhythm slash represents muted slash
 o   - on rhythm slash represents single note slash

Misc Legend
-----------
 |  - bar
||  - double bar
||o - repeat start
o|| - repeat end
*|  - double bar (ending)
 :  - bar (freetime)
 $  - Segno
 &  - Coda
Tempo markers -  = BPM(8/16=s8/s16), where s8 = swing 8ths, s16 = swing 16ths
Tap to rate this tab
# A B C D E F G H I J K L M N O P Q R S T U V W X Y Z