Song name
# A B C D E F G H I J K L M N O P Q R S T U V W X Y Z

Lostprophets - For Sure tab

American Football
"For Sure"

  RIFF 1
E |--------------------|
C |-------------4/2-0--|
G |--------------------|
C |--5-4-5-/7-0--------|
A#|--------------------|
F |-0------------------|
  REPEAT 16x

  RIFF 2
E |--------------------|
C |--------4/2-0-------|
G |--------------------|
C |--7/5-0-------------|
A#|------------2-------|
F |-0------------------|
  REPEAT 4x


RIFF 1 - 6x
RIFF 2 - 4x


  RIFF 3
E |--------------------|
C |--------0-----------|
G |------2---0-2-------|
C |--7/5---------------|
A#|--------------------|
F |-0------------------|
  REPEAT 12x


RIFF 3 - 12x
RIFF 2 - 4x
RIFF 1 - 6x
RIFF 2 - 4x
RIFF 1 - 4x
RIFF 3 - 4x

final chord
E |-0-|
C |-0-|
G |-0-|
C |-4-|
A#|-2-|
F |-0-|


email: modernrocko@gmail.com
aim:   modernrocko
yahoo: modernmusty
msn:   modernrocko@hotmail.com
Tap to rate this tab
 
# A B C D E F G H I J K L M N O P Q R S T U V W X Y Z