Song name
# A B C D E F G H I J K L M N O P Q R S T U V W X Y Z

Lostprophets - Its Not The End Of The World tab

-------------------------------------------------------------------------------
     It's Not the End of the World But I Can See It From Here - Lostprophets
-------------------------------------------------------------------------------
Tabbed by: MusicMan24
Email: a7t1r1@hotmail.com

I tabbed this song all by ear, and about the only part I'm not 100% sure
on is the solo.


Tuning: Drop D Flat


Intro - Gtr. 1

eb|x-x---|
Bb|x-x---|
Gb|x-x---|
Db|x-x---|
Ab|x-x---|
Db|x-x---|

eb|--------------------------77777777-----10--131210---|
Bb|66666666-1010101010101010-99999999---10--10------13-|
Gb|77777777-9-9-9-9-9-9-9-9--99999999-10---------------|
Db|77777777-7-7-7-7-7-7-7-7----------------------------|
Ab|55555555--------------------------------------------|
Db|----------------------------------------------------|

eb|--------------------------77777777--8-8-7-7-|
Bb|66666666-1010101010101010-99999999-1010-9-9-|
Gb|77777777-9-9-9-9-9-9-9-9--99999999-1010-9-9-|
Db|77777777-7-7-7-7-7-7-7-7--------------------|
Ab|55555555------------------------------------|
Db|--------------------------------------------|

eb|--------------------------77777777-----10--131210---|
Bb|66666666-1010101010101010-99999999---10--10------13-|
Gb|77777777-9-9-9-9-9-9-9-9--99999999-10---------------|
Db|77777777-7-7-7-7-7-7-7-7----------------------------|
Ab|55555555--------------------------------------------|
Db|----------------------------------------------------|

eb|--------------------------77777777------7-7-|
Bb|66666666-1010101010101010-99999999-1010-9-9-|
Gb|77777777-9-9-9-9-9-9-9-9--99999999-9-9--9-9-|
Db|77777777-7-7-7-7-7-7-7-7-----------7-7------|
Ab|55555555------------------------------------|
Db|--------------------------------------------|


Gtr. 2


eb|------------------------------------|
Bb|------------------------------------|
Gb|77777777-------------------77777777-|
Db|77777777-77777777-22222222-77777777-|
Ab|55555555-77777777-22222222-55555555-|
Db|---------77777777-22222222----------|

eb|-------------------------------------|
Bb|-------------------------------------|
Gb|77777777-----------------------------|
Db|77777777-77777777-22222222-3333-2222-|
Ab|55555555-77777777-22222222-3333-2222-|
Db|---------77777777-22222222-3333-2222-|


eb|------------------------------------|
Bb|------------------------------------|
Gb|77777777-------------------77777777-|
Db|77777777-77777777-22222222-77777777-|
Ab|55555555-77777777-22222222-55555555-|
Db|---------77777777-22222222----------|

eb|----------------------------------|
Bb|----------------------------------|
Gb|77777777--------------------------|
Db|77777777-77777777-22222222-33--22-|
Ab|55555555-77777777-22222222-33--22-|
Db|---------77777777-22222222-33--22-|


Verse 1 - Gtr. 1 x2

eb|17--1717--1717--1717--1717--17--15--1515--1515--1515--1515--15---|
Bb|-----------------------------------------------------------------|
Gb|--14----14----14----14----14--14--12----12----12----12----12--12-|
Db|-----------------------------------------------------------------|
Ab|-----------------------------------------------------------------|
Db|-----------------------------------------------------------------|
     ..    ..    ..    ..    ..  ..  ..    ..    ..    ..    ..  ..

eb|17--1717--1717--1717--1717--15--1515--1515--1515--1515--19--20---|
Bb|-----------------------------------------------------------------|
Gb|--14----14----14----14----14--12----12----12----12--------16--17-|
Db|-----------------------------------------------------------------|
Ab|-----------------------------------------------------------------|
Db|-----------------------------------------------------------------|
     ..    ..    ..    ..    ..  ..    ..    ..    ..        ..  ..


Gtr. 2 x1 - Come in at 0:30

eb|--------------------------------------------------------------------|
Bb|--------------------------------------------------------------------|
Gb|--------------------------------------------------------------------|
Db|--------------------------------------------------------------------|
Ab|000000000000-3333-----------------000000000000-3333-----------------|
Db|-----------------222222222222-5555-----------------2222222222222222-|


Pre-Chorus - Both guitars

eb|----------------------------------------|
Bb|----------------------------------------|
Gb|----------------------------------------|
Db|----------------------------------------|
Ab|7777-0000-3333-5555-7777-0000-3333-2222-|
Db|----------------------------------------|

eb|--------------------------------------|
Bb|--------------------------------------|
Gb|--------------------------------------|
Db|--------------------------------------|
Ab|7777-0000-3333-5555-33333333-44444444-|
Db|--------------------------------------|


Chorus

Gtr. 1

eb|--------------------------77777777-----10--131210---|
Bb|66666666-1010101010101010-99999999---10--10------13-|
Gb|77777777-9-9-9-9-9-9-9-9--99999999-10---------------|
Db|77777777-7-7-7-7-7-7-7-7----------------------------|
Ab|55555555--------------------------------------------|
Db|----------------------------------------------------|

eb|--------------------------77777777--8-8-7-7-|
Bb|66666666-1010101010101010-99999999-1010-9-9-|
Gb|77777777-9-9-9-9-9-9-9-9--99999999-1010-9-9-|
Db|77777777-7-7-7-7-7-7-7-7--------------------|
Ab|55555555------------------------------------|
Db|--------------------------------------------|

eb|--------------------------77777777-----10--131210---|
Bb|66666666-1010101010101010-99999999---10--10------13-|
Gb|77777777-9-9-9-9-9-9-9-9--99999999-10---------------|
Db|77777777-7-7-7-7-7-7-7-7----------------------------|
Ab|55555555--------------------------------------------|
Db|----------------------------------------------------|

eb|--------------------------77777777------7-7-|
Bb|66666666-1010101010101010-99999999-1010-9-9-|
Gb|77777777-9-9-9-9-9-9-9-9--99999999-9-9--9-9-|
Db|77777777-7-7-7-7-7-7-7-7-----------7-7------|
Ab|55555555------------------------------------|
Db|--------------------------------------------|


Gtr. 2

eb|------------------------------------|
Bb|------------------------------------|
Gb|77777777-------------------77777777-|
Db|77777777-77777777-22222222-77777777-|
Ab|55555555-77777777-22222222-55555555-|
Db|---------77777777-22222222----------|

eb|-------------------------------------|
Bb|-------------------------------------|
Gb|77777777-----------------------------|
Db|77777777-77777777-22222222-3333-2222-|
Ab|55555555-77777777-22222222-3333-2222-|
Db|---------77777777-22222222-3333-2222-|


eb|------------------------------------|
Bb|------------------------------------|
Gb|77777777-------------------77777777-|
Db|77777777-77777777-22222222-77777777-|
Ab|55555555-77777777-22222222-55555555-|
Db|---------77777777-22222222----------|

eb|----------------------------------|
Bb|----------------------------------|
Gb|77777777--------------------------|
Db|77777777-77777777-22222222-33--22-|
Ab|55555555-77777777-22222222-33--22-|
Db|---------77777777-22222222-33--22-|


Pause


Gtr. 1 - Verse x2

Gtr. 2 - Come in right away

Pre-Chorus - Both guitars

Chorus x1


Solo - Gtr. 1 (I think he's using some kind of wah effect)

eb|----------------------|
Bb|10----------------9---| Tremolo
Gb|----------------------|
Db|----------------------|
Ab|----------------------|
Db|----------------------|

eb|17--------17------------------17-----|
Bb|------------17------------------15---|
Gb|--14141414----1414141414141414----14-|
Db|-------------------------------------|
Ab|-------------------------------------|
Db|-------------------------------------|

eb|------16------16---------17--------17----------------17-----|
Bb|----15------15------15---------------------------------15---|
Gb|1313----1313----1313--13---14141414--1414141414141414----14-|
Db|------------------------------------------------------------|
Ab|------------------------------------------------------------|
Db|------------------------------------------------------------|

eb|------161616---------------------------15---------------------|
Bb|----17----------17----15-----------------15------18------17---|
Gb|1313--------1313--1313--13-121212121212----131515--151515--15-|
Db|--------------------------------------------------------------|
Ab|--------------------------------------------------------------|
Db|--------------------------------------------------------------|

eb|-------------------------------151512------------15-1818----------18-|
Bb|----1817----17----18------17----------------------------1818----17---|
Gb|1414----1414--1414--141414--14-------121212121212-----------1515-----|
Db|---------------------------------------------------------------------|
Ab|---------------------------------------------------------------------|
Db|---------------------------------------------------------------------|

eb|--------------------------------------|
Bb|----18----17--171718------17----------|
Gb|1414--1414--14------141414--14--------|
Db|---------------------------------0~---|
Ab|---------------------------------0~---|
Db|---------------------------------0~---|


Gtr. 2

eb|-------------------------------------------------------|
Bb|-------------------------------------------------------|
Gb|-------------------------------------------------------|
Db|-------------------------------------------------------| x4
Ab|---------------------------77-5-7-88-7-5-77-5-7-88-7-5-|
Db|77-5-7-88-7-5-77-5-7-88-7-5----------------------------|

eb|--------------------------------------------------------|
Bb|--------------------------------------------------------|
Gb|--------------------------------------------------------|
Db|-----------------------------------------------xx-x--xx-|
Ab|-----------------------------------------------xx-x--xx-|
Db|55-3-5-66-5-3--88-7-8-1010-8-7--55-3-5-66-5-3--xx-x--xx-|

eb|-------------------------------------------------------------------|
Bb|-------------------------------------------------------------------|
Gb|-------------------------------------------------------------------|
Db|--------------------------------------------------------------0~---|
Ab|--------------------------------------------------------------0~---|
Db|55-3-5-66-5-3--88-7-8-1010-8-7--55-3-5-66-5-3-88-7-8-1010-8-7-0~---|


Pre-Chorus

eb|------------------------------------------------|
Bb|------------------------------------------------|
Gb|7~--------9~------7----////////-----------------| Gtr. 1
Db|x~--------x~------7----////////--<--Pickslide---|
Ab|5~--------7~------5----////////-----------------|
Db|------------------------------------------------|


Both guitars

eb|------------------------------------|
Bb|------------------------------------|
Gb|77777777-------------------77777777-|
Db|77777777-77777777-22222222-77777777-|
Ab|55555555-77777777-22222222-55555555-|
Db|---------77777777-22222222----------|

eb|------------------------------------|
Bb|------------------------------------|
Gb|77777777----------------------------|
Db|77777777-77777777-22222222-3---2~---|
Ab|55555555-77777777-22222222-3~--2~---|
Db|---------77777777-22222222-3~--2~---|


Chorus x4


Both guitars end on...

eb|-----|
Bb|3~---|
Gb|2~---|
Db|0~---|
Ab|0~---|
Db|0~---|


Please rate & comment.


PEACE OUT



************************************

| /   slide up
| \   slide down
| h   hammer-on
| p   pull-off
| ~   vibrato
| +   harmonic
| x   Mute note
| b   Bend
| pb  Pre-bend
| br  Bend release
| pbr Pre-bend release
| brb Bend release bend

************************************
Tap to rate this tab
# A B C D E F G H I J K L M N O P Q R S T U V W X Y Z