Song name
# A B C D E F G H I J K L M N O P Q R S T U V W X Y Z

Lostprophets - Awkward tab

Tabbed by me (Konfliqt) elliottdroppedabomb@hotmail.com
Drop C tuning
p = pull off               
PM = palm mute.
x = scratch
\ = Slide Down

Keep in mind that the instrument playing in the intro and the 8-10 parts is a bass!


D----------------------------------------|
A----------------------------------------|
F----------------------------------------|
C----------------------------------------|         These 2 bars are the main 
G----------------------------------------|          riff.
C-0--0-1p0--0-0-01p0--0-0-01p0--0-0-0-1p0|         Play Bar 1 then 2 then 
                                                   repeat then stop.
             PM this bar
D----------------------------------------|
A----------------------------------------|
F----------------------------------------|
C----------------------------------------|
G----------------------------------------|   
C--0-0-01p0--0-0-01p0--0-0-01p0--0xxxxx--|


D-----------------Quietly alternate------|
A-----------------8-10-------------------|
F-----------------These two notes with---|
C-0letring--------wah pedal--------------|
G-0letring-------------------------------|
C-0letring-------------------------------|


REPEAT MAIN RIFF TWICE


Then play this

D-----------------Quietly alternate------|
A-----------------8-10-11----------------|
F-----------------These two notes with---|
C-0-3-1-0---------wah pedal--------------|
G-0-3-1-0--------------------------------|
C-0-3-1-0letring-------------------------|


REPEAT MAIN RIFF TWICE


D----------------------|
A----------------------|
F----------------------|
C--5----0----1----3----|         x4
G--5----0----1----3----|
C--5----0----1----3----|

D-----------------Quietly alternate------|
A-----------------8-10-------------------|
F-----------------These two notes with---|
C-0letring--------wah pedal--------------|
G-0letring--------until main riff--------|
C-0letring--------returns----------------|


REPEAT MAIN RIFF TWICE


D----------------------|
A----------------------|
F----------------------|
C--5----0----1----3----|         x7
G--5----0----1----3----|
C--5----0----1----3----|

D----------------------|
A----------------------|
F----------------------|
C--5\------------------|
G--5\------------------|
C--5\------------------|
Tap to rate this tab
 
# A B C D E F G H I J K L M N O P Q R S T U V W X Y Z