Song name
# A B C D E F G H I J K L M N O P Q R S T U V W X Y Z

Lostprophets - Five Is A Four Letter Word tab

Awesome song, much better than the new stuff

intro - guitar 1
e--------------------------------|
b--------------------------------|
g--------------------------------|
d--3-----------------------------| x8
a--1-----------------------------|
E----3-3-3-3--3-3-3--3-3-3-------|

e--------------------------------|
b--------------------------------|
g--3-----------------------------|
d--3-----------------------------| x3
a--1-----------------------------|
E----3-3-3-3--3-3-3-3-3-3-3-3----|

e--------------------------------|
b--------------------------------|
g--3------------3-5--------------|
d--3------------3-5--------------| 
a--1------------1-3--------------|
E----3-3-3-3--3------------------|

e--------------------------------|
b--------------------------------|
g--3-----------------------------|
d--3-----------------------------| x4
a--1-----------------------------|
E----3-3-3-3--3-3--3-3--3-3-3-3--|

Verse
guitar 1
e-----------------------------------|
b-----------------------------------|
g-----------------------------------|
d--5-5--5-5--5-5--5-5--5-5-5-5--0~--| x2
a-----------------------------------|
E-----------------------------------|


e----------------------------------13-13--13-13--13-13--13-13--13-13-8-8--|
b-------------------------------------------------------------------------|
g-------------------------------------------------------------------------|
d--5-5--5-5--5-5--5-5--5-5-5-5--0~----------------------------------------| 
a-------------------------------------------------------------------------|
E-------------------------------------------------------------------------|

--8-8--8-8--8-8--8-8------|
--------------------------|
--------------------------|   x2
--------------------------|
--------------------------|

chorus
e--------------------------------|
b--------------------------------|
g--3-----------------------------|
d--3-----------------------------| x3
a--1-----------------------------|
E----3-3-3-3--3-3-3-3-3-3-3-3----|

e--------------------------------|
b--------------------------------|
g--3------------3-5--------------|
d--3------------3-5--------------| 
a--1------------1-3--------------|
E----3-3-3-3--3------------------|

e--------------------------------|
b--------------------------------|
g--3-----------------------------|
d--3-----------------------------| x4
a--1-----------------------------|
E----3-3-3-3--3-3--3-3--3-3-3-3--|

e---------------------
b---------------------
g---------------------
d---------------------
a-5---7---2---0-------
e-5---7---2---0-------

e---------------------
b---------------------
g---------------------
d-5555-3333-2222-3333-
a-3333-1111-0000-1111-
e---------------------

outro
e------------------------
b------------------------
g------------------------
d-8---------------------- x3
a-8--5-5-5-5-5-5-5-5-5-5-
e-6--3-3-3-3-3-3-3-3-3-3-

e---------------------
b---------------------
g---------------------
d-3--5--5-5-5-5------- x4
a-3--5--5-5-5-5-------
e-1--3--3-3-3-3-------

that's it, have fun
Tap to rate this tab
# A B C D E F G H I J K L M N O P Q R S T U V W X Y Z