Song name
# A B C D E F G H I J K L M N O P Q R S T U V W X Y Z

Lostprophets - Bring Em Down tab

-------------------------------------------------------------------------------
                             Bring 'Em Down - Lostprophets
-------------------------------------------------------------------------------
Tabbed by: Jack O'Meara
7th Feb 2012

Email: westhamjack0@hotmail.co.uk

Tuning: Drop D (Rhythm Guitar)

Intro: Rhythm
e|----------------|
B|----------------|
G|----------------|
D|-1-1-4-1--------| x4
A|-1-1-4-1--------|
D|-1-1-4-1--------|

Verse: Rhythm

e|----------------|
B|----------------|
G|----------------|
D|-1-1-4-1--------| x4
A|-1-1-4-1--------|
D|-1-1-4-1--------|

e|---------------------------------------------------------------------------|
B|---------------------------------------------------------------------------|
G|---------------------------------------------------------------------------|
D|-4-4-6-4--6-6-4-6--1-1-4-1--1-1-4-1----------------------------------------|
A|-4-4-6-4--6-6-4-6--1-1-4-1--1-1-4-1----------------------------------------|
D|-4-4-6-4--6-6-4-6--1-1-4-1--1-1-4-1----------------------------------------|

Pre-Chorus: Rhythm
e|-------------------|
B|-------------------|
G|-------------------|
D|-4-3-1--4-6-1------|
A|-4-3-1--4-6-1------|
D|-4-3-1--4-6-1------|

Chorus: Rhythm
e|-------------------------------------------|
B|-------------------------------------------|
G|-------------------------------------------|   x2
D|-9--------11--------1---4------------------| 
A|-9-x16----11-x16----1---4-x16--------------|
D|-9--------11--------1---4------------------|

e|--------------------------------------|
B|--------------------------------------|
G|--------------------------------------|
D|-4-4-6-4--6-6-4-6--1-1-4-1--1-1-4-1---| x2
A|-4-4-6-4--6-6-4-6--1-1-4-1--1-1-4-1---|
D|-4-4-6-4--6-6-4-6--1-1-4-1--1-1-4-1---|

Verse 2: Rhythm
e|----------------|
B|----------------|
G|----------------|
D|-1-1-4-1--------| x4
A|-1-1-4-1--------|
D|-1-1-4-1--------|

e|---------------------------------------------------------------------------|
B|---------------------------------------------------------------------------|
G|---------------------------------------------------------------------------|
D|-4-4-6-4--6-6-4-6--1-1-4-1--1-1-4-1----------------------------------------|
A|-4-4-6-4--6-6-4-6--1-1-4-1--1-1-4-1----------------------------------------|
D|-4-4-6-4--6-6-4-6--1-1-4-1--1-1-4-1----------------------------------------|

Pre-Chorus: Rhythm
e|-------------------|
B|-------------------|
G|-------------------|
D|-4-3-1--4-6-1------|
A|-4-3-1--4-6-1------|
D|-4-3-1--4-6-1------|

Chorus: Rhythm
e|--------------------------------------------|
B|--------------------------------------------|
G|--------------------------------------------|   
D|-9--------11--------1---4-------------------| 
A|-9-x16----11-x16----1---4-x16---------------|
D|-9--------11--------1---4-------------------|

e|--------------------------------------------|
B|--------------------------------------------|
G|--------------------------------------------|   
D|-9--------11--------1-----------------------| 
A|-9-x16----11-x16----1-----------------------|
D|-9--------11--------1-----------------------|

Bridge: Rhythm
e|---------------------------------------------------------------------------|
B|---------------------------------------------------------------------------|
G|---------------------------------------------------------------------------|
D|-----------------------------------------------------------X10-------------|
A|---------1--2--4-----------------------------------------------------------|
D|-1-1-0-1--1--1--4-4--------------------------------------------------------|

e|-------------------|
B|-------------------|
G|-------------------|
D|-4-3-1--4-6-1------|     x2
A|-4-3-1--4-6-1------|
D|-4-3-1--4-6-1------|


************************************

| /   slide up
| \   slide down
| h   hammer-on
| p   pull-off
| ~   vibrato
| +   harmonic
| x   Mute note
| b   Bend
| pb  Pre-bend
| br  Bend release
| pbr Pre-bend release
| brb Bend release bend

************************************
Tap to rate this tab
# A B C D E F G H I J K L M N O P Q R S T U V W X Y Z