Song name
# A B C D E F G H I J K L M N O P Q R S T U V W X Y Z

Lostprophets - Sunshine tab

----------------------------------------------------------------------------
                             Lostprophets - Sunshine           
----------------------------------------------------------------------------

Tuning: DADGBE
Tabbed by: MetalRock4ever

I'm not sure about the rhythm. If you listen to the recording, hopefully that would help.

First part of Intro:
E|----16-------16-------16-14-------14-------14----|
B|-------16-------16----------16-------16-------16-|
G|-13-------13-------13----------13-------13-------|  
D|-------------------------------------------------|
A|-------------------------------------------------|
D|-------------------------------------------------|

E|----14-------14-------14-------------------------|
B|-------12-------12-------16-------16-------16----|
G|-11-------11-------11-------13-------13----------|
D|-------------------------------13-------13----13-|
A|-------------------------------------------------|
D|-------------------------------------------------|

Second part of Intro:
E|----16-------16-------16-14-------14-------14----|
B|-------16-------16----------16-------16-------16-|
G|-13-------13-------13----------13-------13-------|  
D|-------------------------------------------------|
A|-------------------------------------------------|
D|-------------------------------------------------|

E|----14-------14-------14-----14-------14-------14-|
B|-------12-------12--------------12-------12-------|
G|-11-------11-------11-----11-------11-------11----|
D|--------------------------------------------------|
A|--------------------------------------------------|
D|--------------------------------------------------|

Repeat these whenever the intro comes up. 

If there are any problems, please comment/correct it. Enjoy!
Tap to rate this tab
# A B C D E F G H I J K L M N O P Q R S T U V W X Y Z