Song name
# A B C D E F G H I J K L M N O P Q R S T U V W X Y Z

Lostprophets - Bring Em Down tab

    *i'm not sure if the tuning is drop d or c# so i prepared 2 tabs 
     because i think i hear an open chord in the chorus
  

TUNING:DROP D

 INTRO
  
 lead
|---------------------------------|
|-4-4-7-4-4-4-7-4-4-4-7-4-4-6-6-6-|
|---------------------------------| 4x
|---------------------------------|
|---------------------------------|
|---------------------------------|


 VERSE 

 lead
|---------------------------------|
|-4-4-7-4-4-4-7-4-4-4-7-4-4-6-6-6-|
|---------------------------------| 8x
|---------------------------------|
|---------------------------------|
|---------------------------------|

 
 rhythm  *instrumental*
|---------|
|---------|
|---------| 4x  
|-1-1-0-1-|
|-1-1-0-1-|
|-1-1-0-1-|

 
 lead
|---------------------------------|
|-4-4-7-4-4-4-7-4-4-4-7-4-4-6-6-6-|
|---------------------------------| 8x
|---------------------------------|
|---------------------------------|
|---------------------------------|
 
 
 rhythm
|---------|
|---------|
|---------| 4x  
|-1-1-0-1-|
|-1-1-0-1-|
|-1-1-0-1-|

|------------------------------------|
|------------------------------------|
|------------------------------------|
|-4-4-3-4--3-3-1-3--1-1-0-1--1-1-0-1-|
|-4-4-3-4--3-3-1-3--1-1-0-1--1-1-0-1-|
|-4-4-3-4--3-3-1-3--1-1-0-1--1-1-0-1-|

|------------------------------------|
|------------------------------------|
|------------------------------------|
|-4-4-3-4--6-6-4-6--1-1-0-1--1-1-0-1-|
|-4-4-3-4--6-6-4-6--1-1-0-1--1-1-0-1-|
|-4-4-3-4--6-6-4-6--1-1-0-1--1-1-0-1-|

|---------------------------------------|
|---------------------------------------|
|---------------------------------------|
|-4~----3~----1~---------4~----6~----1~-|
|-4~----3~----1~---------4~----6~----1~-|
|-4~----3~----1~---------4~----6~----1~-|


 CHORUS 2x

|-----------------------------------------|
|-----------------------------------------|
|-4-4-4-4-4-4-4-4-4-4-6-6-6-6-6-6-6-6-6-6-|
|-4-4-4-4-4-4-4-4-4-4-6-6-6-6-6-6-6-6-6-6-|
|-2-2-2-2-2-2-2-2-2-2-4-4-4-4-4-4-4-4-4-4-|
|-----------------------------------------|

|-----------------------------------------|
|-----------------------------------------|
|-----------------------------------------|
|-1-1-1-1-1-1-1-1-1-1-1-1-1-1-1-1-1-1-1-1-|
|-1-1-1-1-1-1-1-1-1-1-1-1-1-1-1-1-1-1-1-1-|
|-1-1-1-1-1-1-1-1-1-1-1-1-1-1-1-1-1-1-1-1-|


 
 POST CHORUS

|------------------------------------|
|------------------------------------|
|------------------------------------|
|-4-4-3-4--3-3-1-3--1-1-0-1--1-1-0-1-|
|-4-4-3-4--3-3-1-3--1-1-0-1--1-1-0-1-|
|-4-4-3-4--3-3-1-3--1-1-0-1--1-1-0-1-|

|------------------------------------|
|------------------------------------|
|------------------------------------|
|-4-4-3-4--6-6-4-6--1-1-0-1--1-1-0-1-|
|-4-4-3-4--6-6-4-6--1-1-0-1--1-1-0-1-|
|-4-4-3-4--6-6-4-6--1-1-0-1--1-1-0-1-|


 
 VERSE

 lead
|---------------------------------|
|-4-4-7-4-4-4-7-4-4-4-7-4-4-6-6-6-|
|---------------------------------| 8x
|---------------------------------|
|---------------------------------|
|---------------------------------|
 
 rhythm
|---------|
|---------|
|---------| 4x  
|-1-1-0-1-|
|-1-1-0-1-|
|-1-1-0-1-|

|------------------------------------|
|------------------------------------|
|------------------------------------|
|-4-4-3-4--3-3-1-3--1-1-0-1--1-1-0-1-|
|-4-4-3-4--3-3-1-3--1-1-0-1--1-1-0-1-|
|-4-4-3-4--3-3-1-3--1-1-0-1--1-1-0-1-|

|------------------------------------|
|------------------------------------|
|------------------------------------|
|-4-4-3-4--6-6-4-6--1-1-0-1--1-1-0-1-|
|-4-4-3-4--6-6-4-6--1-1-0-1--1-1-0-1-|
|-4-4-3-4--6-6-4-6--1-1-0-1--1-1-0-1-|

|---------------------------------------|
|---------------------------------------|
|---------------------------------------|
|-4~----3~----1~---------4~----6~----1~-|
|-4~----3~----1~---------4~----6~----1~-|
|-4~----3~----1~---------4~----6~----1~-|


 CHORUS 4x

|-----------------------------------------|
|-----------------------------------------|
|-4-4-4-4-4-4-4-4-4-4-6-6-6-6-6-6-6-6-6-6-|
|-4-4-4-4-4-4-4-4-4-4-6-6-6-6-6-6-6-6-6-6-|
|-2-2-2-2-2-2-2-2-2-2-4-4-4-4-4-4-4-4-4-4-|
|-----------------------------------------|

|-----------------------------------------|
|-----------------------------------------|
|-----------------------------------------|
|-1-1-1-1-1-1-1-1-1-1-1-1-1-1-1-1-1-1-1-1-|(exclude this on the 4th time)
|-1-1-1-1-1-1-1-1-1-1-1-1-1-1-1-1-1-1-1-1-|
|-1-1-1-1-1-1-1-1-1-1-1-1-1-1-1-1-1-1-1-1-|



 BRIDGE  *follow the sequence below 

 I
|-----------------------------|
|-----------------------------|
|-----------------------------|
|-----------------------------| 
|--------------1----2----4----|
|-0-1-1-0-1--1---1----2-----4-|

 II
|------------------|
|------------------|
|------------------|
|------------------| 
|--------------1---|
|-0-1-1-0-1--1---1-|

 III
|-----------------------------|
|-----------------------------|
|-----------------------------|
|-----------------------------| 
|--------------1----2---------|
|-0-1-1-0-1--1---1----2--0h1--|

 IV
|-----------------------------|
|-----------------------------|
|-----------------------------|
|-----------------------------| 
|--------------1----2---------|
|-0-1-1-0-1--1---1----2-------|



 I 3x
 II
 I
 III
 I
 IV
 I
 III
 I
 III
 I
 III
 I
 IV


 OUTRO

|---------------------------------------|
|---------------------------------------|
|---------------------------------------|
|-4~----3~----1~---------4~----6~----1~-|
|-4~----3~----1~---------4~----6~----1~-|
|-4~----3~----1~---------4~----6~----1~-|



==================================================================
==================================================================

 DROP C#

 INTRO
  
 lead
|---------------------------------|
|-5-5-8-5-5-5-8-5-5-5-8-5-5-7-7-7-|
|---------------------------------| 4x
|---------------------------------|
|---------------------------------|
|---------------------------------|


 VERSE 

 lead
|---------------------------------|
|-5-5-8-5-5-5-8-5-5-5-8-5-5-7-7-7-|
|---------------------------------| 8x
|---------------------------------|
|---------------------------------|
|---------------------------------|

 
 rhythm  *instrumental*
|---------|
|---------|
|---------| 4x  
|-2-2-1-2-|
|-2-2-1-2-|
|-2-2-1-2-|

 
 lead
|---------------------------------|
|-5-5-8-5-5-5-8-5-5-5-8-5-5-7-7-7-|
|---------------------------------| 8x
|---------------------------------|
|---------------------------------|
|---------------------------------|
 
 
 rhythm
|---------|
|---------|
|---------| 4x  
|-2-2-1-2-|
|-2-2-1-2-|
|-2-2-1-2-|

|------------------------------------|
|------------------------------------|
|------------------------------------|
|-5-5-4-5--4-4-2-4--2-2-1-2--2-2-1-2-|
|-5-5-4-5--4-4-2-4--2-2-1-2--2-2-1-2-|
|-5-5-4-5--4-4-2-4--2-2-1-2--2-2-1-2-|

|------------------------------------|
|------------------------------------|
|------------------------------------|
|-5-5-4-5--7-7-5-7--2-2-1-2--2-2-1-2-|
|-5-5-4-5--7-7-5-7--2-2-1-2--2-2-1-2-|
|-5-5-4-5--7-7-5-7--2-2-1-2--2-2-1-2-|

|---------------------------------------|
|---------------------------------------|
|---------------------------------------|
|-5~----4~----2~---------5~----7~----2~-|
|-5~----4~----2~---------5~----7~----2~-|
|-5~----4~----2~---------5~----7~----2~-|


 CHORUS 2x

|-----------------------------------------|
|-----------------------------------------|
|-5-5-5-5-5-5-5-5-5-5---------------------|
|-5-5-5-5-5-5-5-5-5-5-0-0-0-0-0-0-0-0-0-0-|
|-3-3-3-3-3-3-3-3-3-3-0-0-0-0-0-0-0-0-0-0-|
|---------------------0-0-0-0-0-0-0-0-0-0-|

|-----------------------------------------|
|-----------------------------------------|
|-----------------------------------------|
|-2-2-2-2-2-2-2-2-2-2-2-2-2-2-2-2-2-2-2-2-|
|-2-2-2-2-2-2-2-2-2-2-2-2-2-2-2-2-2-2-2-2-|
|-2-2-2-2-2-2-2-2-2-2-2-2-2-2-2-2-2-2-2-2-|


 
 POST CHORUS

|------------------------------------|
|------------------------------------|
|------------------------------------|
|-5-5-4-5--4-4-2-4--2-2-1-2--2-2-1-2-|
|-5-5-4-5--4-4-2-4--2-2-1-2--2-2-1-2-|
|-5-5-4-5--4-4-2-4--2-2-1-2--2-2-1-2-|

|------------------------------------|
|------------------------------------|
|------------------------------------|
|-5-5-4-5--7-7-5-7--2-2-1-2--2-2-1-2-|
|-5-5-4-5--7-7-5-7--2-2-1-2--2-2-1-2-|
|-5-5-4-5--7-7-5-7--2-2-1-2--2-2-1-2-|


 
 VERSE

 lead
|---------------------------------|
|-5-5-8-5-5-5-8-5-5-5-8-5-5-7-7-7-|
|---------------------------------| 8x
|---------------------------------|
|---------------------------------|
|---------------------------------|
 
 rhythm
|---------|
|---------|
|---------| 4x  
|-2-2-1-2-|
|-2-2-1-2-|
|-2-2-1-2-|

|------------------------------------|
|------------------------------------|
|------------------------------------|
|-5-5-4-5--4-4-2-4--2-2-1-2--2-2-1-2-|
|-5-5-4-5--4-4-2-4--2-2-1-2--2-2-1-2-|
|-5-5-4-5--4-4-2-4--2-2-1-2--2-2-1-2-|

|------------------------------------|
|------------------------------------|
|------------------------------------|
|-5-5-4-5--7-7-5-7--2-2-1-2--2-2-1-2-|
|-5-5-4-5--7-7-5-7--2-2-1-2--2-2-1-2-|
|-5-5-4-5--7-7-5-7--2-2-1-2--2-2-1-2-|

|---------------------------------------|
|---------------------------------------|
|---------------------------------------|
|-5~----4~----2~---------5~----7~----2~-|
|-5~----4~----2~---------5~----7~----2~-|
|-5~----4~----2~---------5~----7~----2~-|



 CHORUS 4x

|-----------------------------------------|
|-----------------------------------------|
|-5-5-5-5-5-5-5-5-5-5---------------------|
|-5-5-5-5-5-5-5-5-5-5-0-0-0-0-0-0-0-0-0-0-|
|-3-3-3-3-3-3-3-3-3-3-0-0-0-0-0-0-0-0-0-0-|
|---------------------0-0-0-0-0-0-0-0-0-0-|

|-----------------------------------------|
|-----------------------------------------|
|-----------------------------------------|
|-2-2-2-2-2-2-2-2-2-2-2-2-2-2-2-2-2-2-2-2-|(exclude this on the 4th time)
|-2-2-2-2-2-2-2-2-2-2-2-2-2-2-2-2-2-2-2-2-|
|-2-2-2-2-2-2-2-2-2-2-2-2-2-2-2-2-2-2-2-2-|



 BRIDGE  *follow the sequence below 

 I
|-----------------------------|
|-----------------------------|
|-----------------------------|
|-----------------------------| 
|--------------2----3----5----|
|-1-2-2-1-2--2---2----3-----5-|

 II
|------------------|
|------------------|
|------------------|
|------------------| 
|--------------2---|
|-1-2-2-1-2--2---2-|

 III
|-----------------------------|
|-----------------------------|
|-----------------------------|
|-----------------------------| 
|--------------2----3---------|
|-1-2-2-1-2--2---2----3--1h2--|

 IV
|-----------------------------|
|-----------------------------|
|-----------------------------|
|-----------------------------| 
|--------------2----3---------|
|-1-2-2-1-2--2---2----3-------|



 I 3x
 II
 I
 III
 I
 IV
 I
 III
 I
 III
 I
 III
 I
 IV


 OUTRO

|---------------------------------------|
|---------------------------------------|
|---------------------------------------|
|-5~----4~----2~---------5~----7~----2~-|
|-5~----4~----2~---------5~----7~----2~-|
|-5~----4~----2~---------5~----7~----2~-|
Tap to rate this tab
 
# A B C D E F G H I J K L M N O P Q R S T U V W X Y Z