Song name
# A B C D E F G H I J K L M N O P Q R S T U V W X Y Z

Lostprophets - Bring Em Down tab

E-Mail joeholmesy@live.co.uk

Artist Lostprophets
Song: Bring Em' Down
Album: Weapons 

Tuning:Drop D

Intro

e|--------------------------------------------------------------------------|
B|--------------------------------------------------------------------------|
G|-------12--------12---------12-----12-------------------------------------|
D|--14-14--14-14-14--14--14-14--14-14---------------------------------------|
A|--------------------------------------------------------------------------|
D|--------------------------------------------------------------------------|

Verse Part 1
e|--------------------------------------------------------------------------|
B|--------------------------------------------------------------------------|
G|--------------------------------------------------------------------------|
D|---2-2-0-2----------------------------------------------------------------|
A|---2-2-0-2----------------------------------------------------------------|
D|---2-2-0-2----------------------------------------------------------------|

Verse 1+2 Part 2
e|--------------------------------------------------------------------------|
B|--------------------------------------------------------------------------|
G|--------------------------------------------------------------------------|
D|---5---7---2-2-0-2------5----7---2-2-0-2---5---4---2---2---5---4---2---2--|
A|---5---5---2-2-0-2------5----7---2-2-0-2---5---4---2---2---5---4---2---2--|
D|---5---4---2-2-0-2------5----7---2-2-0-2---5---4---2---2---5---4---2---2--|

Chorus
e|--------------------------------------------------------------------------|
B|---5--5--7--7--9--9--9--9-------------------------------------------------|
G|---5--5--5--5--9--9--9--9-------------------------------------------------|
D|---5--3--5--5--9--9--9--9-------------------------------------------------|
A|---3--3--5--5--7--7--7--9-------------------------------------------------|
D|--------------------------------------------------------------------------|

Breakdown
e|--------------------------------------------------------------------------|
B|--------------------------------------------------------------------------|
G|-------------------------9-9-9-9--9-9-9-9--12-9-9-12-9-9-11-9-------------|
D|--------------------------------------------------------------------------|
A|---------------2--3--5----------------------------------------------------|
D|-2--2--0--2--2--2--5--7---------------------------------------------------|

Outro
e|-12-12-12-12--12-12-12-12--15-12-12-15-12-12-14-12-12-12-12-12--12--12----|
B|--------------------------------------------------------------------------|
G|--------------------------------------------------------------------------|
D|--------------------------------------------------------------------------|
A|--------------------------------------------------------------------------|
D|--------------------------------------------------------------------------|

e|-12-12--15-12-12-17-12-12-15-12--12-12-12-12--12-12-12-12--15-12-12-15-12-|
B|--------------------------------------------------------------------------|
G|--------------------------------------------------------------------------|
D|--------------------------------------------------------------------------|
A|--------------------------------------------------------------------------|
D|--------------------------------------------------------------------------|

e|-12-14-12-12-12-12-12--12-12-12--12\--------------------------------------|
B|--------------------------------------------------------------------------|
G|--------------------------------------------------------------------------|
D|--------------------------------------------------------------------------|
A|--------------------------------------------------------------------------|
D|--------------------------------------------------------------------------|


************************************

| /   slide up
| \   slide down
| h   hammer-on
| p   pull-off
| ~   vibrato
| +   harmonic
| x   Mute note
| b   Bend
| pb  Pre-bend
| br  Bend release
| pbr Pre-bend release
| brb Bend release bend

************************************
Tap to rate this tab
# A B C D E F G H I J K L M N O P Q R S T U V W X Y Z