Song name
# A B C D E F G H I J K L M N O P Q R S T U V W X Y Z

Lostprophets - Jesus Walks tab

_____________________________________________________________________________
-Song: Jesus Walks
-Album: Weapons
-Artist: Lostprophets
-Difficulty: 4/10

This is the first tab that I have done, I saw there was not an upload for Jesus Walks on 
here so I thought it sounded pretty easy to work out, and ta-da! Any suggestions, 
corrections and (preferably not) complaints, email me at:

This_addy_sucks@hotmail.co.uk

Or just leave a comment :)

_____________________________________________________________________________

Tuning Drop D (DADGBE)

---Intro---

Lead:
E|-----------------------------------------------------------------------|
B|-9-9-9-9-9-9-9-9-8-8-8-8-8-8-8-8-8-8-8-8-8-8-8-8-6-6-6-6-6-6-6-6-------|
G|-8-8-8-8-8-8-8-8-7-7-7-7-7-7-7-7-7-7-7-7-7-7-7-7-5-5-5-5-5-5-5-5-------| x2
D|-6-6-6-6-6-6-6-6-5-5-5-5-5-5-5-5-5-5-5-5-5-5-5-5-3-3-3-3-3-3-3-3-------|
A|-----------------------------------------------------------------------|
D|-----------------------------------------------------------------------|

Rhythm:
E|-----------------------------------------------------------------------|
B|-----------------------------------------------------------------------|
G|-----------------------------------------------------------------------| x2
D|-13--------------12------------------------------10--------------------|
A|-11--------------10------------------------------8---------------------|
D|-----------------------------------------------------------------------|
  Play 8 times     Play 16 times                   Play 8 times

---Verse---

Lead:
E|-----------------------------------------------------------------------|
B|-9-9-9-9-9-9-9-9-8-8-8-8-8-8-8-8-8-8-8-8-8-8-8-8-6-6-6-6-6-6-6-6-------|
G|-8-8-8-8-8-8-8-8-7-7-7-7-7-7-7-7-7-7-7-7-7-7-7-7-5-5-5-5-5-5-5-5-------| x4
D|-6-6-6-6-6-6-6-6-5-5-5-5-5-5-5-5-5-5-5-5-5-5-5-5-3-3-3-3-3-3-3-3-------|
A|-----------------------------------------------------------------------|
D|-----------------------------------------------------------------------|

Rhythm:
E|-----------------------------------------------------------------------|
B|-----------------------------------------------------------------------|
G|-----------------------------------------------------------------------| x4
D|-13--------------12------------------------------10--------------------|
A|-11--------------10------------------------------8---------------------|
D|-----------------------------------------------------------------------|
  Play 8 times     Play 16 times                   Play 8 times

---Pre-chorus (but not before the chorus yet)---

Lead/Rhythm:
E|-----------------------------------------------------------------------|
B|-----------------------------------------------------------------------|
G|-----------------------------------------------------------------------|
D|-6-------8-------10-------8-------6-------8-------10-------13----------|
A|-6-------8-------10-------8-------6-------8-------10-------13----------|
D|-6-------8-------10-------8-------6-------8-------10-------13----------|

---Verse 2---

Lead:
E|-----------------------------------------------------------------------|
B|-9-9-9-9-9-9-9-9-8-8-8-8-8-8-8-8-8-8-8-8-8-8-8-8-6-6-6-6-6-6-6-6-------|
G|-8-8-8-8-8-8-8-8-7-7-7-7-7-7-7-7-7-7-7-7-7-7-7-7-5-5-5-5-5-5-5-5-------| x4
D|-6-6-6-6-6-6-6-6-5-5-5-5-5-5-5-5-5-5-5-5-5-5-5-5-3-3-3-3-3-3-3-3-------|
A|-----------------------------------------------------------------------|
D|-----------------------------------------------------------------------|

Rhythm:
E|-----------------------------------------------------------------------|
B|-----------------------------------------------------------------------|
G|-----------------------------------------------------------------------| x2
D|-13--------------12------------------------------10--------------------|
A|-11--------------10------------------------------8---------------------|
D|-----------------------------------------------------------------------|
  Play 8 times     Play 16 times                   Play 8 times

E|-----------------------------------------------------------------------|
B|-----------------------------------------------------------------------|
G|-----------------------------------------------------------------------| x2
D|-----6-----6---6-----5-----5---5-----5-----5---5-----3-----3---3-------|
A|-----6-----6---6-----5-----5---5-----5-----5---5-----3-----3---3-------|
D|-----6-----6---6-----5-----5---5-----5-----5---5-----3-----3---3-------|


---Pre-chorus---

Lead/Rhythm:
E|-----------------------------------------------------------------------|
B|-----------------------------------------------------------------------|
G|-----------------------------------------------------------------------|
D|-6-------8-------10-------8-------6-------8-------10-------13----------|
A|-6-------8-------10-------8-------6-------8-------10-------13----------|
D|-6-------8-------10-------8-------6-------8-------10-------13----------|

---Chorus---

Lead/Rhythm:
E|-----------------------------------------------------------------------|
B|-----------------------------------------------------------------------|
G|-----------------------------------------------------------------------| x2
D|-6-6-6-6-6-6-6-1--1-1-1-1-1-1-1-8-8-8-8-8-8-8-10--10-10-10-10-10-10-10-|
A|-6-6-6-6-6-6-6-1--1-1-1-1-1-1-1-8-8-8-8-8-8-8-10--10-10-10-10-10-10-10-|
D|-6-6-6-6-6-6-6-1--1-1-1-1-1-1-1-8-8-8-8-8-8-8-10--10-10-10-10-10-10-10-|

---Verse 3---

Lead:
E|-----------------------------------------------------------------------|
B|-9-9-9-9-9-9-9-9-8-8-8-8-8-8-8-8-8-8-8-8-8-8-8-8-6-6-6-6-6-6-6-6-------|
G|-8-8-8-8-8-8-8-8-7-7-7-7-7-7-7-7-7-7-7-7-7-7-7-7-5-5-5-5-5-5-5-5-------| x2
D|-6-6-6-6-6-6-6-6-5-5-5-5-5-5-5-5-5-5-5-5-5-5-5-5-3-3-3-3-3-3-3-3-------|
A|-----------------------------------------------------------------------|
D|-----------------------------------------------------------------------|

Rhythm:
E|-----------------------------------------------------------------------|
B|-----------------------------------------------------------------------|
G|-----------------------------------------------------------------------| x2
D|-----6-----6---6-----5-----5---5-----5-----5---5-----3-----3---3-------|
A|-----6-----6---6-----5-----5---5-----5-----5---5-----3-----3---3-------|
D|-----6-----6---6-----5-----5---5-----5-----5---5-----3-----3---3-------|

---Pre-chorus---

Lead/Rhythm:
E|-----------------------------------------------------------------------|
B|-----------------------------------------------------------------------|
G|-----------------------------------------------------------------------|
D|-6-------8-------10-------8-------6-------8-------10-------13----------|
A|-6-------8-------10-------8-------6-------8-------10-------13----------|
D|-6-------8-------10-------8-------6-------8-------10-------13----------|

---Chorus---

Lead/Rhythm:
E|-----------------------------------------------------------------------|
B|-----------------------------------------------------------------------|
G|-----------------------------------------------------------------------| x4
D|-6-6-6-6-6-6-6-1--1-1-1-1-1-1-1-8-8-8-8-8-8-8-10--10-10-10-10-10-10-10-|
A|-6-6-6-6-6-6-6-1--1-1-1-1-1-1-1-8-8-8-8-8-8-8-10--10-10-10-10-10-10-10-|
D|-6-6-6-6-6-6-6-1--1-1-1-1-1-1-1-8-8-8-8-8-8-8-10--10-10-10-10-10-10-10-|


---Solo---
This solo is not difficult once you get the feel of it.

Lead:
E|---------------------------6-8-6---------------------------------------|
B|-8-8-6-6-------8-8-6-6-8-8---------------------------------------------|
G|---------3-3-3---------------------------------------------------------| x2
D|-----------------------------------------------------------------------|
A|-----------------------------------------------------------------------|
D|-----------------------------------------------------------------------|

E|-----------------------------------------------------------6-8-6-------|
B|-3-3-4-4-6-6-8-3-3-3-4-4-6-6-8-8-8-6-4---------8-8-6-6-8-8-------------|
G|---------------------------------------3-3-3-3-------------------------|
D|-----------------------------------------------------------------------|
A|-----------------------------------------------------------------------|
D|-----------------------------------------------------------------------|

Repeat the entire solo (when the vocals come in)

Rhythm:
E|-----------------------------------------------------------------------|
B|-----------------------------------------------------------------------|
G|-----------------------------------------------------------------------|
D|-3-3-3-3-3-3-3-3-3-3-3-3-3-3-3-3-6-6-6-6-6-6-6-6-6-6-6-6-6-6-6-6-------|
A|-3-3-3-3-3-3-3-3-3-3-3-3-3-3-3-3-6-6-6-6-6-6-6-6-6-6-6-6-6-6-6-6-------|
D|-3-3-3-3-3-3-3-3-3-3-3-3-3-3-3-3-6-6-6-6-6-6-6-6-6-6-6-6-6-6-6-6-------|

E|-----------------------------------------------------------------------|
B|-----------------------------------------------------------------------|
G|-----------------------------------------------------------------------|
D|-1-1-1-1-1-1-1-1-1-1-1-1-1-1-1-1-8-8-8-8-8-8-8-8-8-8-8-8-8-8-8-8-------|
A|-1-1-1-1-1-1-1-1-1-1-1-1-1-1-1-1-8-8-8-8-8-8-8-8-8-8-8-8-8-8-8-8-------|
D|-1-1-1-1-1-1-1-1-1-1-1-1-1-1-1-1-8-8-8-8-8-8-8-8-8-8-8-8-8-8-8-8-------|

Repeat this entire section (when the vocals come in)

---Final Pre-chorus---

Lead/Rhythm:
E|-----------------------------------------------------------------------|
B|-----------------------------------------------------------------------|
G|-----------------------------------------------------------------------|
D|-----------------------------------------------------------------------|
A|-----------------------------------------------------------------------|
D|-----------------------------------------------------------------------|

E|-----------------------------------------------------------------------|
B|-----------------------------------------------------------------------|
G|-----------------------------------------------------------------------|
D|-6-6-6-6-6-6-6-6-5-5-5-5-5-5-5-5-1-------------------------------------|
A|-6-6-6-6-6-6-6-6-5-5-5-5-5-5-5-5-1--------------------*Epic drum fill*-|
D|-6-6-6-6-6-6-6-6-5-5-5-5-5-5-5-5-1-------------------------------------|

---Final Chorus---

Lead/Rhythm:
E|-----------------------------------------------------------------------|
B|-----------------------------------------------------------------------|
G|-----------------------------------------------------------------------| x6
D|-6-6-6-6-6-6-6-1--1-1-1-1-1-1-1-8-8-8-8-8-8-8-10--10-10-10-10-10-10-10-|
A|-6-6-6-6-6-6-6-1--1-1-1-1-1-1-1-8-8-8-8-8-8-8-10--10-10-10-10-10-10-10-|
D|-6-6-6-6-6-6-6-1--1-1-1-1-1-1-1-8-8-8-8-8-8-8-10--10-10-10-10-10-10-10-|

---Outro---

Lead/Rhythm:
E|-----------------------------------------------------------------------|
B|-----------------------------------------------------------------------|
G|-----------------------------------------------------------------------|
D|-6---------------------------------------------------------------------|
A|-6---------------------------------------------------------------------|
D|-6---------------------------------------------------------------------|

That is the whole song :D Should be pretty accurate, again any corrections please 
comment or email me (address is at the top).

************************************

| /   slide up
| \   slide down
| h   hammer-on
| p   pull-off
| ~   vibrato
| +   harmonic
| x   Mute note
| b   Bend
| pb  Pre-bend
| br  Bend release
| pbr Pre-bend release
| brb Bend release bend

************************************
Tap to rate this tab
# A B C D E F G H I J K L M N O P Q R S T U V W X Y Z