Song name
# A B C D E F G H I J K L M N O P Q R S T U V W X Y Z

Lostprophets - Awkward tab

----------------------------------------------------------------------------
                          Lostprophets - Awkward
----------------------------------------------------------------------------

Tabbed by: Metalrock4ever

Tuning: CGCFAD

Intro:
(Listen to music for rhythm)
D|------------------------------------------|
A|------------------------------------------|
F|------------------------------------------|
C|------------------------------------------|
G|-----3----------3----------3----------3---|
C|-0-0---1-0-00-0---1-0--0-0---1-0-00-0---1-|

D|------------------------------------------|
A|------------------------------------------|
F|------------------------------------------|
C|---------------------------------0x0x0x0x-|
G|-----3----------3----------3-----0x0x0x0x-|
C|-0-0---1-0-00-0---1-0--0-0---1-0-0x0x0x0x-|

D|------------------------------------------|
A|------------------------------------------|
F|------------------------------------------|
C|------------------------------------------|
G|-----3----------3----------3----------3---|
C|-0-0---1-0-00-0---1-0--0-0---1-0-00-0---1-|

D|------------------------------------------|
A|------------------------------------------|
F|------------------------------------------|
C|---------------------------------0x0x0x0x-|
G|-----3----------3----------3-----0x0x0x0x-|
C|-0-0---1-0-00-0---1-0--0-0---1-0-0x0x0x0x-|


Verse:
D|--------------------------------------|
A|---10~-11---8~-5---10~-11-13---8~-5---|
F|-7--------5------7-----------7------5-|
C|--------------------------------------|  x2
G|--------------------------------------|
C|--------------------------------------|

D|------------------------------------------|
A|------------------------------------------|
F|------------------------------------------|
C|------------------------------------------|
G|-----3----------3----------3----------3---|
C|-0-0---1-0-00-0---1-0--0-0---1-0-00-0---1-|

D|------------------------------------------|
A|------------------------------------------|
F|------------------------------------------|
C|---------------------------------0x0x0x0x-|
G|-----3----------3----------3-----0x0x0x0x-|
C|-0-0---1-0-00-0---1-0--0-0---1-0-0x0x0x0x-|

D|------------------------------------------|
A|------------------------------------------|
F|------------------------------------------|
C|------------------------------------------|
G|-----3----------3----------3----------3---|
C|-0-0---1-0-00-0---1-0--0-0---1-0-00-0---1-|

D|------------------------------------------|
A|------------------------------------------|
F|------------------------------------------|
C|---------------------------------0x0x0x0x-|
G|-----3----------3----------3-----0x0x0x0x-|
C|-0-0---1-0-00-0---1-0--0-0---1-0-0x0x0x0x-|

D|-------|
A|-------|
F|-------|
C|-0-3-1-|
G|-0-3-1-|
C|-0-3-1-|

Verse 2:
(Listen to music for rhythm)
D|-----------------------|
A|-----------------------|
F|-----------------------|
C|-----------------------| x8
G|---------------------3-|
C|-00-0-00-0-0000-00-0---|

Solo Part:
D|--------------------------------------|
A|---10~-11---8~-5---10~-11-13---8~-5---|
F|-7--------5------7-----------7------5-|
C|--------------------------------------|  x2
G|--------------------------------------|
C|--------------------------------------|

D|------------------------------------------|
A|------------------------------------------|
F|------------------------------------------|
C|------------------------------------------|
G|-----3----------3----------3----------3---|
C|-0-0---1-0-00-0---1-0--0-0---1-0-00-0---1-|

D|------------------------------------------|
A|------------------------------------------|
F|------------------------------------------|
C|---------------------------------0x0x0x0x-|
G|-----3----------3----------3-----0x0x0x0x-|
C|-0-0---1-0-00-0---1-0--0-0---1-0-0x0x0x0x-|

D|------------------------------------------|
A|------------------------------------------|
F|------------------------------------------|
C|------------------------------------------|
G|-----3----------3----------3----------3---|
C|-0-0---1-0-00-0---1-0--0-0---1-0-00-0---1-|

D|------------------------------------------|
A|------------------------------------------|
F|------------------------------------------|
C|---------------------------------0x0x0x0x-|
G|-----3----------3----------3-----0x0x0x0x-|
C|-0-0---1-0-00-0---1-0--0-0---1-0-0x0x0x0x-|


Chorus:
D|-------------|
A|-------------|
F|-------------|
C|-5~-0~-1~-3~-|  x4
G|-5~-0~-1~-3~-|
C|-5~-0~-1~-3~-|


Verse 3:
(Listen to music for rhythm)
D|-----------------------|
A|-----------------------|
F|-----------------------|
C|-----------------------| x8
G|---------------------3-|
C|-00-0-00-0-0000-00-0---|

Solo Part:
D|--------------------------------------|
A|---10~-11---8~-5---10~-11-13---8~-5---|
F|-7--------5------7-----------7------5-|
C|--------------------------------------|  x2
G|--------------------------------------|
C|--------------------------------------|

D|------------------------------------------|
A|------------------------------------------|
F|------------------------------------------|
C|------------------------------------------|
G|-----3----------3----------3----------3---|
C|-0-0---1-0-00-0---1-0--0-0---1-0-00-0---1-|

D|------------------------------------------|
A|------------------------------------------|
F|------------------------------------------|
C|---------------------------------0x0x0x0x-|
G|-----3----------3----------3-----0x0x0x0x-|
C|-0-0---1-0-00-0---1-0--0-0---1-0-0x0x0x0x-|

D|------------------------------------------|
A|------------------------------------------|
F|------------------------------------------|
C|------------------------------------------|
G|-----3----------3----------3----------3---|
C|-0-0---1-0-00-0---1-0--0-0---1-0-00-0---1-|

D|------------------------------------------|
A|------------------------------------------|
F|------------------------------------------|
C|---------------------------------0x0x0x0x-|
G|-----3----------3----------3-----0x0x0x0x-|
C|-0-0---1-0-00-0---1-0--0-0---1-0-0x0x0x0x-|


Chorus 2/Outro:
D|-------------|
A|-------------|
F|-------------|
C|-5~-0~-1~-3~-|  x8
G|-5~-0~-1~-3~-|
C|-5~-0~-1~-3~-|

End on:
D|----|
A|----|
F|----|
C|-5\-|
G|-5\-|
C|-5\-|

************************************

| /   slide up
| \   slide down
| h   hammer-on
| ~   vibrato
| x   Mute note

************************************

If you have any comments/corrections, please say in either the comments box or leave me 
a message. Good luck and enjoy!
Tap to rate this tab
# A B C D E F G H I J K L M N O P Q R S T U V W X Y Z