Song name
# A B C D E F G H I J K L M N O P Q R S T U V W X Y Z

Lostprophets - Miles Away From Nowhere tab

-------------------------------------------------------------------------------
			    Miles Away From Nowhere - Lostprophets
-------------------------------------------------------------------------------
Tabbed by:volcanicbaboon
Email:vamdude@yahoo.com

Tuning:drop C
Intro
|-----------------------------------------------------0--0------------------|
|----------------------------------------------------0--0--0----------------|
|---------------------------------------------------------------------------|
|---4----4---2------------4----4---2-------4----4--2------------------------|
|---------------------------------------------------------------------------|
|-4----0----------------4----0-----------4----0------------------------------|
Verse
|---------------------------------------------0--0--------------------------|
|---------------0---0--0--------------------0--0--0-------------------------|
|---------------------------------------------------------------------------|
|---4----4---2------------------4-----4---2----------------(Alternate these-|
|-----------------------------------------------------------Patterns)-------|
|-4----0----------------------4----0----------------------------------------|
Chorus
Gtr 1
|---------------------------------------------------------------------------|
|---------------------------------------------------------------------------|
|---------------------------------------------------------------------------|
|4---7---0---------4---9---0-------------(Alternate these patterns)---------|
|4---7---0---------4---9---0------------------------------------------------|
|4---7---0---------4---9---0------------------------------------------------|
Gtr 2
|~5---~4----------~7--~4----------------------------------------------------|
|--------~5----------------~5-----------------------------------------------|
|---------------------------------------------------------------------------|
|---------------------------------------------------------------------------|
|---------------------------------------------------------------------------|
|---------------------------------------------------------------------------|
Bridge Outro
|------------------------------4---4-4--------------------------------------|
|-7---7-7---7----7-7-----------5---5-5--------------------------------------|
|-6---6-6---6----6-6-----------4---4-4------(x ~10 or something)------------|
|-4---4-4---4----4-4-----------6---6-6--------------------------------------|
|-4---4-4---4----4-4-----------7---7-7--------------------------------------|
|-4---4-4---4----4-4--------------------------------------------------------|

| /  slide up
| \  slide down
| h  hammer-on
| p  pull-off
| ~  vibrato
| +  harmonic
| x  Mute note
===============================================================================
Tap to rate this tab
# A B C D E F G H I J K L M N O P Q R S T U V W X Y Z