Song name
# A B C D E F G H I J K L M N O P Q R S T U V W X Y Z

Lostprophets - Start Something tab

Help us improve GuitareTab! Take a short survey!
#----------------------------------PLEASE NOTE---------------------------------#
#This file is the author's own work and represents their interpretation of the #
#song. You may only use this file for private study, scholarship, or research. #
#------------------------------------------------------------------------------##

                                 START SOMETHING
                           As recorded by Lostprophets
                      (From the 2004 Album START SOMETHING)

Words by Ian Watkins

Music by Lostprophets
Transcribed by Hal-Leonard

          D5                   Eb5                 Bb5/F                 F5
      0 0 0 x x x          1 1 1 x x x          3 1 3 3 x x          3 3 3 x x x

Gtr I (D A D G B E) - 'Lee Gaze'
Gtr II (D A D G B E) - 'Mike Lewis'
Gtr III (D A D G B E) - 'Jamie Richard Oliver'

   Intro
    Moderately Fast Rock Q=116
    D5
   4/4
    Gtr I
    PM--------|
    S S S S S S E +S  E S S S S S
||--------------------------------|
||o-------------------------------|
||--------------------7-7-5-7-7-7-|
||--0-0-0-0---0-0-(0)-0-0-0-0-0-0-|
||o-0-0-0-0---0-------------------|
||--0-0-0-0---0-------------------|
|
|   Gtr II
|   PM----------|
|   S S S S S S e  H
||--------------------------------|
||o-------------------------------|
||--------------------------------|
||--0-0-0-0---0-0-----------------|
||o-0-0-0-0---0-0-----------------|
||--0-0-0-0---0-0-----------------|


   S     +E  S +S  S  a      +S  +S  +S  E S S S E
|---------------------------------------------------||
|--------------------------------------------------o||
|--7b8.5r(7)-7-(7)-7--7b8.5==(7)r(7)-(7)-7-7-5-7-7--||
|-(0)--------0-(0)-0-(0)-----------------0-0-0-0-0--||
|--------------------------------------------------o||
|---------------------------------------------------||
|
|  W
|---------------------------------------------------||
|--------------------------------------------------o||
|---------------------------------------------------||
|---------------------------------------------------||
|--------------------------------------------------o||
|---------------------------------------------------||


  D5          Bb5/F
  PM--------|
  S S S S S S E +S  E S S S S S
|-------------------------------|
|-------------------------------|
|-------------------7-7-5-7-7-7-|
|-0-0-0-0---0-0-(0)-0-0-0-0-0-0-|
|-0-0-0-0---0-------------------|
|-0-0-0-0---0-------------------|
|
| PM--------|
| S S S S S S E +H
|-------------------------------|
|-------------------------------|
|-------------3-(3)-------------|
|-0-0-0-0---0-3-(3)-------------|
|-0-0-0-0---0-1-(1)-------------|
|-0-0-0-0---0-3-(3)-------------|


   S     +E  S +S  S  a      +S  +S  +S  E S S S E
|---------------------------------------------------|
|---------------------------------------------------|
|--7b8.5r(7)-7-(7)-7--7b8.5==(7)r(7)-(7)-7-7-5-7-7--|
|-(0)--------0-(0)-0-(0)-----------------0-0-0-0-0--|
|---------------------------------------------------|
|---------------------------------------------------|
|
| +W
|---------------------------------------------------|
|---------------------------------------------------|
|-(3)-----------------------------------------------|
|-(3)-----------------------------------------------|
|-(1)-----------------------------------------------|
|-(3)-----------------------------------------------|


  D5
  PM--------|
  S S S S S S E +S  E S S S S S
|-------------------------------|
|-------------------------------|
|-------------------7-7-5-7-7-7-|
|-0-0-0-0---0-0-(0)-0-0-0-0-0-0-|
|-0-0-0-0---0-------------------|
|-0-0-0-0---0-------------------|
|
| PM----------|
| S S S S S S e  H
|-------------------------------|
|-------------------------------|
|-------------------------------|
|-0-0-0-0---0-0-----------------|
|-0-0-0-0---0-0-----------------|
|-0-0-0-0---0-0-----------------|


   S     +E  S +S  S  a      +S  +S  +S  E S S S E
|---------------------------------------------------|
|---------------------------------------------------|
|--7b8.5r(7)-7-(7)-7--7b8.5==(7)r(7)-(7)-7-7-5-7-7--|
|-(0)--------0-(0)-0-(0)-----------------0-0-0-0-0--|
|---------------------------------------------------|
|---------------------------------------------------|
|
|  W
|---------------------------------------------------|
|---------------------------------------------------|
|---------------------------------------------------|
|---------------------------------------------------|
|---------------------------------------------------|
|---------------------------------------------------|


    D5
    PM--------|
    S S S S S S  E  +S  E S S S S S
||----------------------------------|
||o---------------------------------|
||----------------------7-7-5-7-7-7-|
||--0-0-0-0---0--0--(0)-0-0-0-0-0-0-|
||o-0-0-0-0---0---------------------|
||--0-0-0-0---0---------------------|
|
|   PM--------|
|   S S S S S S  E  +H
||--------------(0)-(0)-------------|
||o-------------(3)-(3)-------------|
||--------------(2)-(2)-------------|
||--0-0-0-0---0--0--(0)-------------|
||o-0-0-0-0---0--0--(0)-------------|
||--0-0-0-0---0--0--(0)-------------|


   S     +E  S +S  S  a      +S  +S  +S  E S S S E
|---------------------------------------------------||
|--------------------------------------------------o||
|--7b8.5r(7)-7-(7)-7--7b8.5==(7)r(7)-(7)-7-7-5-7-7--||
|-(0)--------0-(0)-0-(0)-----------------0-0-0-0-0--||
|--------------------------------------------------o||
|---------------------------------------------------||
|
| +W
|-(0)-----------------------------------------------||
|-(3)----------------------------------------------o||
|-(2)-----------------------------------------------||
|-(0)-----------------------------------------------||
|-(0)----------------------------------------------o||
|-(0)-----------------------------------------------||


  D5          Bb5/F
  PM--------|
  S S S S S S E +S  E S S S S S
|-------------------------------|
|-------------------------------|
|-------------------7-7-5-7-7-7-|
|-0-0-0-0---0-0-(0)-0-0-0-0-0-0-|
|-0-0-0-0---0-------------------|
|-0-0-0-0---0-------------------|
|
| PM--------|
| S S S S S S E +H
|-------------------------------|
|-------------------------------|
|-------------3-(3)-------------|
|-0-0-0-0---0-3-(3)-------------|
|-0-0-0-0---0-1-(1)-------------|
|-0-0-0-0---0-3-(3)-------------|


   S     +E  S +S  S  a      +S  +S  +S  E S S S E
|---------------------------------------------------|
|---------------------------------------------------|
|--7b8.5r(7)-7-(7)-7--7b8.5==(7)r(7)-(7)-7-7-5-7-7--|
|-(0)--------0-(0)-0-(0)-----------------0-0-0-0-0--|
|---------------------------------------------------|
|---------------------------------------------------|
|
| +W
|---------------------------------------------------|
|---------------------------------------------------|
|-(3)-----------------------------------------------|
|-(3)-----------------------------------------------|
|-(1)-----------------------------------------------|
|-(3)-----------------------------------------------|


  D5
  PM--------|
  S S S S S S  E  +S  E S S S S S
|---------------------------------|
|---------------------------------|
|---------------------7-7-5-7-7-7-|
|-0-0-0-0---0--0--(0)-0-0-0-0-0-0-|
|-0-0-0-0---0---------------------|
|-0-0-0-0---0---------------------|
|
| PM--------|
| S S S S S S  E  +H
|-------------(0)-(0)-------------|
|-------------(3)-(3)-------------|
|-------------(2)-(2)-------------|
|-0-0-0-0---0--0--(0)-------------|
|-0-0-0-0---0--0--(0)-------------|
|-0-0-0-0---0--0--(0)-------------|


   S     +E  S +S  S  a      +S  +S  +S  E S S S E
|---------------------------------------------------|
|---------------------------------------------------|
|--7b8.5r(7)-7-(7)-7--7b8.5==(7)r(7)-(7)-7-7-5-7-7--|
|-(0)--------0-(0)-0-(0)-----------------0-0-0-0-0--|
|---------------------------------------------------|
|---------------------------------------------------|
|
| +W
|-(0)-----------------------------------------------|
|-(3)-----------------------------------------------|
|-(2)-----------------------------------------------|
|-(0)-----------------------------------------------|
|-(0)-----------------------------------------------|
|-(0)-----------------------------------------------|


  D5
  PM--------|
  S S S S S S E +S  E S S S S S
|-------------------------------|
|-------------------------------|
|-------------------7-7-5-7-7-7-|
|-0-0-0-0---0-0-(0)-0-0-0-0-0-0-|
|-0-0-0-0---0-------------------|
|-0-0-0-0---0-------------------|
|
| PM----------|
| S S S S S S e  H
|-------------------------------|
|-------------------------------|
|-------------------------------|
|-0-0-0-0---0-0-----------------|
|-0-0-0-0---0-0-----------------|
|-0-0-0-0---0-0-----------------|


   S     +E  S +S  S  a      +S  +S  +S  E S S S E
|---------------------------------------------------|
|---------------------------------------------------|
|--7b8.5r(7)-7-(7)-7--7b8.5==(7)r(7)-(7)-7-7-5-7-7--|
|-(0)--------0-(0)-0-(0)-----------------0-0-0-0-0--|
|---------------------------------------------------|
|---------------------------------------------------|
|
|  W
|---------------------------------------------------|
|---------------------------------------------------|
|---------------------------------------------------|
|---------------------------------------------------|
|---------------------------------------------------|
|---------------------------------------------------|


  N.C.
  E S E S E S E S S S S S    S     +E  S +S  S  a      +S  +S  +S  E S Q
|-------------------------|-----------------------------------------------||
|-------------------------|-----------------------------------------------||
|-7-7-7-7-7-5-7-7-5-7-7-7-|--7b8.5r(7)-7-(7)-7--7b8.5==(7)r(7)-(7)-7-7----||
|-0-0-0-0-0-0-0-0-0-0-0-0-|-(0)--------0-(0)-0-(0)-----------------0-0----||
|-------------------------|-----------------------------------------------||
|-------------------------|-----------------------------------------------||


 Verse
  F                   Bb5/F
   S  S  S  S   S   S S S  S  S S S S S S S
|-------------------------------------------|
|-------------------------------------------|
|--7--5--7--7---5---7-7-5--7--7-7-7-7-5-7---|
|--0--0--0--0---0---0-0-0--0--0-0-0-0-0-0---|
|-------------------------------------------|
|-------------------------------------------|
|
| Gtr II
|  S  S  S  S  +S   S E   +S  S E   S S E
|-------------------------------------------|
|-------------------------------------------|
|-10-10-10-10-(10)-10-3---(3)-3-3---3-3-3---|
|--x--x--x--x-------x-3---(3)-3-3---3-3-3---|
|--8--8--8--8--(8)--8-1---(1)-1-1---1-1-1---|
|---------------------3---(3)-3-3---3-3-3---|


  S S S S S S S S  S  S S S S S S S
|-----------------------------------|
|-----------------------------------|
|-7-5-7-7-5-7-7-5--7--7-7-7-7-5-7---|
|-0-0-0-0-0-0-0-0--0--0-0-0-0-0-0---|
|-----------------------------------|
|-----------------------------------|
|
| S S S S S S E   +S  S E   S S E
|-----------------------------------|
|-----------------------------------|
|-3-3-3-3-3-3-3---(3)-3-3---3-3-3---|
|-3-3-3-3-3-3-3---(3)-3-3---3-3-3---|
|-1-1-1-1-1-1-1---(1)-1-1---1-1-1---|
|-3-3-3-3-3-3-3---(3)-3-3---3-3-3---|


  F        G          D5
   S  S  S  S   S   S S S  S  S S S S S S S
|-------------------------------------------|
|-------------------------------------------|
|--9--7--9--9---7---9-9-7--9--9-9-9-9-7-9---|
|--0--0--0--0---0---0-0-0--0--0-0-0-0-0-0---|
|-------------------------------------------|
|-------------------------------------------|
|
|  S  S  S  S  +S   S E   +S  S E   S S E
|-------------------------------------------|
|-------------------------------------------|
|-10-10-10S12-(12)-12-----------------------|
|--x--x--x--x-------x-0---(0)-0-0---0-0-0---|
|--8--8--8S10-(10)-10-0---(0)-0-0---0-0-0---|
|---------------------0---(0)-0-0---0-0-0---|


  S S S S S S S S  S  S S S S S S S
|-----------------------------------|
|-----------------------------------|
|-9-7-9-9-7-9-9-7--9--9-9-9-9-7-9---|
|-0-0-0-0-0-0-0-0--0--0-0-0-0-0-0---|
|-----------------------------------|
|-----------------------------------|
|
| S S S S S S E   +S  S E   S S E
|-----------------------------------|
|-----------------------------------|
|-----------------------------------|
|-0-0-0-0-0-0-0---(0)-0-0---0-0-0---|
|-0-0-0-0-0-0-0---(0)-0-0---0-0-0---|
|-0-0-0-0-0-0-0---(0)-0-0---0-0-0---|


  F                   Bb5/F
   S  S  S  S   S   S  S S  S   S  S  S  S S  S S
|-------------------------------------------------|
|-------------------------------------------------|
|-10--9-10-10---9--10-10-9-10--10-10-10-10-9-10---|
|--0--0--0--0---0---0--0-0--0---0--0--0--0-0--0---|
|-------------------------------------------------|
|-------------------------------------------------|
|
|  S  S  S  S  +S   S  E   +S   S  E     S S  E
|-------------------------------------------------|
|-------------------------------------------------|
|-10-10-10-10-(10)-10--3---(3)--3--3-----3-3--3---|
|--x--x--x--x-------x--3---(3)--3--3-----3-3--3---|
|--8--8--8--8--(8)--8--1---(1)--1--1-----1-1--1---|
|----------------------3---(3)--3--3-----3-3--3---|


   S S  S  S S  S  S S  S   S  S  S  S S  S S
|---------------------------------------------|
|---------------------------------------------|
|-10-9-10-10-9-10-10-9-10--10-10-10-10-9-10---|
|--0-0--0--0-0--0--0-0--0---0--0--0--0-0--0---|
|---------------------------------------------|
|---------------------------------------------|
|
|  S S  S  S S  S  E   +S   S  E     S S  E
|---------------------------------------------|
|---------------------------------------------|
|--3-3--3--3-3--3--3---(3)--3--3-----3-3--3---|
|--3-3--3--3-3--3--3---(3)--3--3-----3-3--3---|
|--1-1--1--1-1--1--1---(1)--1--1-----1-1--1---|
|--3-3--3--3-3--3--3---(3)--3--3-----3-3--3---|


  F        G          D5
   S  S  S  S   S   S  S  S  S   S  S  S  S  S  S S
|---------------------------------------------------|
|---------------------------------------------------|
|-12-10-12-12--12--12-12-12-12--12-10-12-12-10-12---|
|--0--0--0--0---0---0--0--0--0---0--0--0--0--0--0---|
|---------------------------------------------------|
|---------------------------------------------------|
|
|  S  S  S  S  +S   S  E    +S   S  E     S  S  E
|---------------------------------------------------|
|---------------------------------------------------|
|-10-10-10S12-(12)-12-------------------------------|
|--x--x--x--x-------x--0----(0)--0--0-----0--0--0---|
|--8--8--8S10-(10)-10--0----(0)--0--0-----0--0--0---|
|----------------------0----(0)--0--0-----0--0--0---|


   S  S  S  S  S  S  S  S  S   S  S  S  S  S  S S
|-------------------------------------------------|
|-------------------------------------------------|
|-12-10-12-12-10-12-12-10-12--12-10-12-12-10-12---|
|--0--0--0--0--0--0--0--0--0---0--0--0--0--0--0---|
|-------------------------------------------------|
|-------------------------------------------------|
|
|  S  S  S  S  S  S  E    +S   S  E     S  S  E
|-------------------------------------------------|
|-------------------------------------------------|
|---------------------------------------x--x--x---|
|--0--0--0--0--0--0--0----(0)--0--0-----x--x--x---|
|--0--0--0--0--0--0--0----(0)--0--0-----x--x--x---|
|--0--0--0--0--0--0--0----(0)--0--0-----x--x--x---|


  F                   Bb5/F
   S  S  S  S   S   S S S  S  S S S S S S S
|-------------------------------------------|
|-------------------------------------------|
|--7--5--7--7---5---7-7-5--7--7-7-7-7-5-7---|
|--0--0--0--0---0---0-0-0--0--0-0-0-0-0-0---|
|-------------------------------------------|
|-------------------------------------------|
|
|  S  S  S  S  +S   S E   +S  S E   S S E
|-------------------------------------------|
|-------------------------------------------|
|-10-10-10-10-(10)-10-3---(3)-3-3---3-3-3---|
|--x--x--x--x-------x-3---(3)-3-3---3-3-3---|
|--8--8--8--8--(8)--8-1---(1)-1-1---1-1-1---|
|---------------------3---(3)-3-3---3-3-3---|


  S S S S S S S S  S  S S S S S S S
|-----------------------------------|
|-----------------------------------|
|-7-5-7-7-5-7-7-5--7--7-7-7-7-5-7---|
|-0-0-0-0-0-0-0-0--0--0-0-0-0-0-0---|
|-----------------------------------|
|-----------------------------------|
|
| S S S S S S E   +S  S E   S S E
|-----------------------------------|
|-----------------------------------|
|-3-3-3-3-3-3-3---(3)-3-3---3-3-3---|
|-3-3-3-3-3-3-3---(3)-3-3---3-3-3---|
|-1-1-1-1-1-1-1---(1)-1-1---1-1-1---|
|-3-3-3-3-3-3-3---(3)-3-3---3-3-3---|


  F        G          D5
   S  S  S  S   S   S S S  S  S S S S S S S
|-------------------------------------------|
|-------------------------------------------|
|--9--7--9--9---7---9-9-7--9--9-9-9-9-7-9---|
|--0--0--0--0---0---0-0-0--0--0-0-0-0-0-0---|
|-------------------------------------------|
|-------------------------------------------|
|
|  S  S  S  S  +S   S E   +S  S E   S S E
|-------------------------------------------|
|-------------------------------------------|
|-10-10-10S12-(12)-12-----------------------|
|--x--x--x--x-------x-0---(0)-0-0---0-0-0---|
|--8--8--8S10-(10)-10-0---(0)-0-0---0-0-0---|
|---------------------0---(0)-0-0---0-0-0---|


  S S S S S S S S  S  S S S S S S S
|-----------------------------------|
|-----------------------------------|
|-9-7-9-9-7-9-9-7--9--9-9-9-9-7-9---|
|-0-0-0-0-0-0-0-0--0--0-0-0-0-0-0---|
|-----------------------------------|
|-----------------------------------|
|
| S S S S S S E   +S  S E   S S E
|-----------------------------------|
|-----------------------------------|
|-----------------------------------|
|-0-0-0-0-0-0-0---(0)-0-0---0-0-0---|
|-0-0-0-0-0-0-0---(0)-0-0---0-0-0---|
|-0-0-0-0-0-0-0---(0)-0-0---0-0-0---|


  F                   Bb5/F
   S  S  S  S   S   S  S S  S   S  S  S  S S  S S
|-------------------------------------------------|
|-------------------------------------------------|
|-10--9-10-10---9--10-10-9-10--10-10-10-10-9-10---|
|--0--0--0--0---0---0--0-0--0---0--0--0--0-0--0---|
|-------------------------------------------------|
|-------------------------------------------------|
|
|  S  S  S  S  +S   S  E   +S   S  E     S S  E
|-------------------------------------------------|
|-------------------------------------------------|
|-10-10-10-10-(10)-10--3---(3)--3--3-----3-3--3---|
|--x--x--x--x-------x--3---(3)--3--3-----3-3--3---|
|--8--8--8--8--(8)--8--1---(1)--1--1-----1-1--1---|
|----------------------3---(3)--3--3-----3-3--3---|


   S S  S  S S  S  S S  S   S  S  S  S S  S S
|---------------------------------------------|
|---------------------------------------------|
|-10-9-10-10-9-10-10-9-10--10-10-10-10-9-10---|
|--0-0--0--0-0--0--0-0--0---0--0--0--0-0--0---|
|---------------------------------------------|
|---------------------------------------------|
|
|  S S  S  S S  S  E   +S   S  E     S S  E
|---------------------------------------------|
|---------------------------------------------|
|--3-3--3--3-3--3--3---(3)--3--3-----3-3--3---|
|--3-3--3--3-3--3--3---(3)--3--3-----3-3--3---|
|--1-1--1--1-1--1--1---(1)--1--1-----1-1--1---|
|--3-3--3--3-3--3--3---(3)--3--3-----3-3--3---|


  F        G          D5
   S  S  S  S   S   S  S  S  S   S  S  S  S  S  S S
|---------------------------------------------------|
|---------------------------------------------------|
|-12-10-12-12--12--12-12-12-12--12-10-12-12-10-12---|
|--0--0--0--0---0---0--0--0--0---0--0--0--0--0--0---|
|---------------------------------------------------|
|---------------------------------------------------|
|
|  S  S  S  S  +S   S  E    +S   S  E     S  S  E
|---------------------------------------------------|
|---------------------------------------------------|
|-10-10-10S12-(12)-12-------------------------------|
|--x--x--x--x-------x--0----(0)--0--0-----0--0--0---|
|--8--8--8S10-(10)-10--0----(0)--0--0-----0--0--0---|
|----------------------0----(0)--0--0-----0--0--0---|


   S  S  S  S  S  S  S  S  S   S  S  S  S  S  S S
|-------------------------------------------------||
|-------------------------------------------------||
|-12-10-12-12-10-12-12-10-12--12-10-12-12-10-12---||
|--0--0--0--0--0--0--0--0--0---0--0--0--0--0--0---||
|-------------------------------------------------||
|-------------------------------------------------||
|
|  S  S  S  S  S  S  E    +S   S  E     S  S  E
|-------------------------------------------------||
|-------------------------------------------------||
|-------------------------------------------------||
|--0--0--0--0--0--0--0----(0)--0--0-----0--0--0---||
|--0--0--0--0--0--0--0----(0)--0--0-----0--0--0---||
|--0--0--0--0--0--0--0----(0)--0--0-----0--0--0---||


 Interlude
  $
  D5
  Gtr II
  E    E    Q         H
  |
  /

  Gtr I
  S S  S S  S  S S S  S S  S  S S S  S S
|----------------------------------------|
|----------------------------------------|
|----------------------------------------|
|----------------------------------------|
|----------------------------------------|
|-0-0-12-0-10-13-0-0-12-0-10-13-0-0-12-0-|


  W
  S S  S S  S  S S S  S S  S  S  S  S  S  S
|-------------------------------------------|
|-------------------------------------------|
|-------------------------------------------|
|-------------------------------------------|
|-------------------------------------------|
|-0-0-12-0-10-13-0-0-12-0-10-13-15-15-15-15-|


  D5
  S S  S S  S  S S S  S S  S  S S S  S S
  | |  | |  |  | | |  | |  |  | | |  | |
  / /  / /  /  / / /  / /  /  / / /  / /

  S S  S S  S  S S S  S S  S  S S S  S S
|----------------------------------------|
|----------------------------------------|
|----------------------------------------|
|----------------------------------------|
|----------------------------------------|
|-0-0-12-0-10-13-0-0-12-0-10-13-0-0-12-0-|


  S S  S S  S  S S S  S S  S  S  S  S  S  S
  | |  | |  |  | | |  | |  |  |  |  |  |  |
  / /  / /  /  / / /  / /  /  /  /  /  /  /

  S S  S S  S  S S S  S S  S  S  S  S  S  S
|-------------------------------------------||
|-------------------------------------------||
|-------------------------------------------||
|-------------------------------------------||
|-------------------------------------------||
|-0-0-12-0-10-13-0-0-12-0-10-13-15-15-15-15-||


 Chorus
  F5
  S S  S S  S  S S S  S S  S  S S S  S S
  | |  | |  |  | | |  | |  |  | | |  | |
  / /  / /  /  / / /  / /  /  / / /  / /

  S S  S S  S  S S S  S S  S  S S S  S S
|----------------------------------------|
|----------------------------------------|
|----------------------------------------|
|----------------------------------------|
|----------------------------------------|
|-0-0-12-0-10-13-0-0-12-0-10-13-0-0-12-0-|


  Eb5
  S S  S S  S  S S S  S S  S  S  S  S  S  S
  | |  | |  |  | | |  | |  |  |  |  |  |  |
  / /  / /  /  / / /  / /  /  /  /  /  /  /

  S S  S S  S  S S S  S S  S  S  S  S  S  S
|-------------------------------------------|
|-------------------------------------------|
|-------------------------------------------|
|-------------------------------------------|
|-------------------------------------------|
|-0-0-12-0-10-13-0-0-12-0-10-13-15-15-15-15-|


  D5
  S S  E    S  S E    S S  E    S S  E
  | |       |  |      | |       | |
  / /       /  /      / /       / /

  S S  S S  S  S S S  S S  S  S S S  S S
|----------------------------------------|
|----------------------------------------|
|----------------------------------------|
|----------------------------------------|
|----------------------------------------|
|-0-0-12-0-10-13-0-0-12-0-10-13-0-0-12-0-|


  Eb5
  S S  E    S  S E    S S  E     S  S  E
  | |       |  |      | |        |  |
  / /       /  /      / /        /  /

  S S  S S  S  S S S  S S  S  S  S  S  S  S
|-------------------------------------------|
|-------------------------------------------|
|-------------------------------------------|
|-------------------------------------------|
|-------------------------------------------|
|-0-0-12-0-10-13-0-0-12-0-10-13-15-15-15-15-|


  F5
  S S  S S  S  S S S  S S  S  S S S  S S
  | |  | |  |  | | |  | |  |  | | |  | |
  / /  / /  /  / / /  / /  /  / / /  / /

  S S  S S  S  S S S  S S  S  S S S  S S
|----------------------------------------|
|----------------------------------------|
|----------------------------------------|
|----------------------------------------|
|----------------------------------------|
|-0-0-12-0-10-13-0-0-12-0-10-13-0-0-12-0-|


                                  To Coda
  Eb5
  S S  S S  S  S S S  S S  S  S  S  S  S  S
  | |  | |  |  | | |  | |  |  |  |  |  |  |
  / /  / /  /  / / /  / /  /  /  /  /  /  /

  S S  S S  S  S S S  S S  S  S  S  S  S  S
|-------------------------------------------||
|-------------------------------------------||
|-------------------------------------------||
|-------------------------------------------||
|-------------------------------------------||
|-0-0-12-0-10-13-0-0-12-0-10-13-15-15-15-15-||


  D5
  W                                 E   E   Q       H
  |                                 |
  /                                 /

  S S S S S S S S S S S S S S S S   S S S S S S S S H
|---------------------------------|----------------------||
|---------------------------------|----------------------||
|-7-5-7-7-5-7-7-5-7-7-5-7-7-5-7---|-7-5-7-7-5-7-7-5------||
|-0-0-0-0-0-0-0-0-0-0-0-0-0-0-0---|-0-0-0-0-0-0-0-0------||
|---------------------------------|----------------------||
|---------------------------------|----------------------||


 Verse
  F                   Bb5/F
  Gtr I
   S  S  S  S   S   S S S  S  S S S S S S S
|-------------------------------------------|
|-------------------------------------------|
|--7--5--7--7---5---7-7-5--7--7-7-7-7-5-7---|
|--0--0--0--0---0---0-0-0--0--0-0-0-0-0-0---|
|-------------------------------------------|
|-------------------------------------------|
|
| Gtr II
|  S  S  S  S  +S   S E   +S  S E   S S E
|-------------------------------------------|
|-------------------------------------------|
|-10-10-10-10-(10)-10-3---(3)-3-3---3-3-3---|
|--x--x--x--x-------x-3---(3)-3-3---3-3-3---|
|--8--8--8--8--(8)--8-1---(1)-1-1---1-1-1---|
|---------------------3---(3)-3-3---3-3-3---|


  S S S S S S S S  S  S S S S S S S
|-----------------------------------|
|-----------------------------------|
|-7-5-7-7-5-7-7-5--7--7-7-7-7-5-7---|
|-0-0-0-0-0-0-0-0--0--0-0-0-0-0-0---|
|-----------------------------------|
|-----------------------------------|
|
| S S S S S S E   +S  S E   S S E
|-----------------------------------|
|-----------------------------------|
|-3-3-3-3-3-3-3---(3)-3-3---3-3-3---|
|-3-3-3-3-3-3-3---(3)-3-3---3-3-3---|
|-1-1-1-1-1-1-1---(1)-1-1---1-1-1---|
|-3-3-3-3-3-3-3---(3)-3-3---3-3-3---|


  F        G          D5
   S  S  S  S   S   S S S  S  S S S S S S S
|-------------------------------------------|
|-------------------------------------------|
|--9--7--9--9---7---9-9-7--9--9-9-9-9-7-9---|
|--0--0--0--0---0---0-0-0--0--0-0-0-0-0-0---|
|-------------------------------------------|
|-------------------------------------------|
|
|  S  S  S  S  +S   S E   +S  S E   S S E
|-------------------------------------------|
|-------------------------------------------|
|-10-10-10S12-(12)-12-----------------------|
|--x--x--x--x-------x-0---(0)-0-0---0-0-0---|
|--8--8--8S10-(10)-10-0---(0)-0-0---0-0-0---|
|---------------------0---(0)-0-0---0-0-0---|


  S S S S S S S S  S  S S S S S S S
|-----------------------------------|
|-----------------------------------|
|-9-7-9-9-7-9-9-7--9--9-9-9-9-7-9---|
|-0-0-0-0-0-0-0-0--0--0-0-0-0-0-0---|
|-----------------------------------|
|-----------------------------------|
|
| S S S S S S E   +S  S E   S S E
|-----------------------------------|
|-----------------------------------|
|-----------------------------------|
|-0-0-0-0-0-0-0---(0)-0-0---0-0-0---|
|-0-0-0-0-0-0-0---(0)-0-0---0-0-0---|
|-0-0-0-0-0-0-0---(0)-0-0---0-0-0---|


  F                   Bb5/F
   S  S  S  S   S   S  S S  S   S  S  S  S S  S S
|-------------------------------------------------|
|-------------------------------------------------|
|-10--9-10-10---9--10-10-9-10--10-10-10-10-9-10---|
|--0--0--0--0---0---0--0-0--0---0--0--0--0-0--0---|
|-------------------------------------------------|
|-------------------------------------------------|
|
|  S  S  S  S  +S   S  E   +S   S  E     S S  E
|-------------------------------------------------|
|-------------------------------------------------|
|-10-10-10-10-(10)-10--3---(3)--3--3-----3-3--3---|
|--x--x--x--x-------x--3---(3)--3--3-----3-3--3---|
|--8--8--8--8--(8)--8--1---(1)--1--1-----1-1--1---|
|----------------------3---(3)--3--3-----3-3--3---|


   S S  S  S S  S  S S  S   S  S  S  S S  S S
|---------------------------------------------|
|---------------------------------------------|
|-10-9-10-10-9-10-10-9-10--10-10-10-10-9-10---|
|--0-0--0--0-0--0--0-0--0---0--0--0--0-0--0---|
|---------------------------------------------|
|---------------------------------------------|
|
|  S S  S  S S  S  E   +S   S  E     S S  E
|---------------------------------------------|
|---------------------------------------------|
|--3-3--3--3-3--3--3---(3)--3--3-----3-3--3---|
|--3-3--3--3-3--3--3---(3)--3--3-----3-3--3---|
|--1-1--1--1-1--1--1---(1)--1--1-----1-1--1---|
|--3-3--3--3-3--3--3---(3)--3--3-----3-3--3---|


  F        G          D5
   S  S  S  S   S   S  S  S  S   S  S  S  S  S  S S
|---------------------------------------------------|
|---------------------------------------------------|
|-12-10-12-12--12--12-12-12-12--12-10-12-12-10-12---|
|--0--0--0--0---0---0--0--0--0---0--0--0--0--0--0---|
|---------------------------------------------------|
|---------------------------------------------------|
|
|  S  S  S  S  +S   S  E    +S   S  E     S  S  E
|---------------------------------------------------|
|---------------------------------------------------|
|-10-10-10S12-(12)-12-------------------------------|
|--x--x--x--x-------x--0----(0)--0--0-----0--0--0---|
|--8--8--8S10-(10)-10--0----(0)--0--0-----0--0--0---|
|----------------------0----(0)--0--0-----0--0--0---|


   S  S  S  S  S  S  S  S  S   S  S  S  S  S  S S
|-------------------------------------------------|
|-------------------------------------------------|
|-12-10-12-12-10-12-12-10-12--12-10-12-12-10-12---|
|--0--0--0--0--0--0--0--0--0---0--0--0--0--0--0---|
|-------------------------------------------------|
|-------------------------------------------------|
|
|  S  S  S  S  S  S  E    +S   S  E     S  S  E
|-------------------------------------------------|
|-------------------------------------------------|
|---------------------------------------x--x--x---|
|--0--0--0--0--0--0--0----(0)--0--0-----x--x--x---|
|--0--0--0--0--0--0--0----(0)--0--0-----x--x--x---|
|--0--0--0--0--0--0--0----(0)--0--0-----x--x--x---|


  F                   Bb5/F
   S  S  S  S   S   S  S S  S   S S  S  S S  S S
|------------------------------------------------|
|------------------------------------------------|
|-10--9-10-10---9--10-10-9-10--10-9-10-10-9-10---|
|------------------------------------------------|
|------------------------------------------------|
|------------------------------------------------|
|
|  S  S  S  S  +S   S  E   +S   S E     S S  E
|------------------------------------------------|
|------------------------------------------------|
|-10-10-10-10-(10)-10--3---(3)--3-3-----3-3--3---|
|--x--x--x--x-------x--3---(3)--3-3-----3-3--3---|
|--8--8--8--8--(8)--8--1---(1)--1-1-----1-1--1---|
|----------------------3---(3)--3-3-----3-3--3---|


   S S  S  S S  S  S S  S   S S  S  S S  S S
|--------------------------------------------|
|--------------------------------------------|
|-10-9-10-10-9-10-10-9-10--10-9-10-10-9-10---|
|--------------------------------------------|
|--------------------------------------------|
|--------------------------------------------|
|
|  S S  S  S S  S  E   +S   S E     S S  E
|--------------------------------------------|
|--------------------------------------------|
|--3-3--3--3-3--3--3---(3)--3-3-----3-3--3---|
|--3-3--3--3-3--3--3---(3)--3-3-----3-3--3---|
|--1-1--1--1-1--1--1---(1)--1-1-----1-1--1---|
|--3-3--3--3-3--3--3---(3)--3-3-----3-3--3---|


  F        G          D5
   S  S  S  S   S   S  S  S  S   S  S  S  S  S  S S
|---------------------------------------------------|
|---------------------------------------------------|
|-12-10-12-12--10--12-12-10-12--12-10-12-12-10-12---|
|---------------------------------------------------|
|---------------------------------------------------|
|---------------------------------------------------|
|
|  S  S  S  S  +S   S  E    +S   S  E     S  S  E
|---------------------------------------------------|
|---------------------------------------------------|
|-10-10-10S12-(12)-12-------------------------------|
|--x--x--x--x-------x--0----(0)--0--0-----0--0--0---|
|--8--8--8S10-(10)-10--0----(0)--0--0-----0--0--0---|
|----------------------0----(0)--0--0-----0--0--0---|


   S  S  S  S  S  S  S  S  S   S  S  S  S  S  S S
|-------------------------------------------------|
|-------------------------------------------------|
|-12-10-12-12-10-12-12-10-12--12-10-12-12-10-12---|
|-------------------------------------------------|
|-------------------------------------------------|
|-------------------------------------------------|
|
|  S  S  S  S  S  S  E    +S   S  E     S  S  E
|-------------------------------------------------|
|-------------------------------------------------|
|-------------------------------------------------|
|--0--0--0--0--0--0--0----(0)--0--0-----0--0--0---|
|--0--0--0--0--0--0--0----(0)--0--0-----0--0--0---|
|--0--0--0--0--0--0--0----(0)--0--0-----0--0--0---|


  F                   Bb5/F
   S  S  S  S   S   S  S  S  S   S  S  S  S  S  S S
|---------------------------------------------------|
|---------------------------------------------------|
|-14-12-14-14--12--14-14-12-14--14-12-14-14-12-14---|
|---------------------------------------------------|
|---------------------------------------------------|
|---------------------------------------------------|
|
|  S  S  S  S  +S   S  E    +S   S  E     S  S  E
|---------------------------------------------------|
|---------------------------------------------------|
|-10-10-10-10-(10)-10--3----(3)--3--3-----3--3--3---|
|--x--x--x--x-------x--3----(3)--3--3-----3--3--3---|
|--8--8--8--8--(8)--8--1----(1)--1--1-----1--1--1---|
|----------------------3----(3)--3--3-----3--3--3---|


   S  S  S  S  S  S  S  S  S   S  S  S  S  S  S S
|-------------------------------------------------|
|-------------------------------------------------|
|-14-12-14-14-12-14-14-12-14--14-12-14-14-12-14---|
|-------------------------------------------------|
|-------------------------------------------------|
|-------------------------------------------------|
|
|  S  S  S  S  S  S  E    +S   S  E     S  S  E
|-------------------------------------------------|
|-------------------------------------------------|
|--3--3--3--3--3--3--3----(3)--3--3-----3--3--3---|
|--3--3--3--3--3--3--3----(3)--3--3-----3--3--3---|
|--1--1--1--1--1--1--1----(1)--1--1-----1--1--1---|
|--3--3--3--3--3--3--3----(3)--3--3-----3--3--3---|


  F                   D5
   S  S  S  S   S   S  S  S  S   S  S  S  S  S  S S
|---------------------------------------------------|
|---------------------------------------------------|
|-17-14-17-17--14--17-17-14-17--17-14-17-17-14-17---|
|---------------------------------------------------|
|---------------------------------------------------|
|---------------------------------------------------|
|
|  S  S  S  S  +S   S  E    +S   S  E     S  S  E
|---------------------------------------------------|
|---------------------------------------------------|
|-10-10-10S12-(12)-12-------------------------------|
|--x--x--x--x-------x--0----(0)--0--0-----0--0--0---|
|--8--8--8S10-(10)-10--0----(0)--0--0-----0--0--0---|
|----------------------0----(0)--0--0-----0--0--0---|


                                    D.S. al Coda
   S  S  S  S  S  S  S  S  S   S  S  S  S  S  S S
|-------------------------------------------------||
|-------------------------------------------------||
|-19-17-19-19-17-19-19-17-19--19-17-19-19-17-19---||
|-------------------------------------------------||
|-------------------------------------------------||
|-------------------------------------------------||
|
|  S  S  S  S  S  S  E    +S   S  E     S  S  E
|-------------------------------------------------||
|-------------------------------------------------||
|-------------------------------------------------||
|--0--0--0--0--0--0--0----(0)--0--0-----0--0--0---||
|--0--0--0--0--0--0--0----(0)--0--0-----0--0--0---||
|--0--0--0--0--0--0--0----(0)--0--0-----0--0--0---||


 Outro
  &
  D5                Eb5
  Gtrs I, II
                    PM--|
                    |-3-|
  W          +H     q q q
|----------|--------------|
|----------|--------------|
|----------|--------------|
|-0--------|-(0)----1-1-1-|
|-0--------|-(0)----1-1-1-|
|-0--------|-(0)----1-1-1-|


  D5                                Eb5
                                     PM--|
                                     |-3-|
  W                      +H          q q q
|----------------------|--------------------|
|----------------------|--------------------|
|----------------------|--------------------|
|-0--------------------|-(0)---------1-1-1--|
|-0--------------------|-(0)---------1-1-1--|
|-0--------------------|-(0)---------1-1-1--|
|
| Gtr III
| E  E  E  E  Q   E  E    Q    E  E  H
|----------------------|--------------------|
|----------------------|------------15------|
|------14-15-14--13-14-|-13---12-13---------|
|---12-----------------|--------------------|
|----------------------|--------------------|
|----------------------|--------------------|


  Bb5/F                             Eb5
                                     PM--|
                                     |-3-|
  W                      +H          q q q
|----------------------|---------------------|
|----------------------|---------------------|
|-3--------------------|-(3)-----------------|
|-3--------------------|-(3)---------1-1-1---|
|-1--------------------|-(1)---------1-1-1---|
|-3--------------------|-(3)---------1-1-1---|
|
| E  E  E  E  Q   E  E    Q    E  E  H
|----------------------|---------------------|
|----------------------|------------15-------|
|------14-15-14--13-14-|-13---12-13----------|
|---12-----------------|---------------------|
|----------------------|---------------------|
|----------------------|---------------------|


                                              H.=H
  D5                                Eb5
                                     PM--|
                                     |-3-|
  W                      +H          q q q      W
|----------------------|--------------------|---------||
|----------------------|--------------------|---------||
|----------------------|--------------------|---------||
|-0--------------------|-(0)---------1-1-1--|---------||
|-0--------------------|-(0)---------1-1-1--|---------||
|-0--------------------|-(0)---------1-1-1--|---------||
|
| E  E  E  E  Q   E  E    Q    E  E  H         +W
|----------------------|--------------------|---------||
|----------------------|------------15------|-(15)----||
|------14-15-14--13-14-|-13---12-13---------|---------||
|---12-----------------|--------------------|---------||
|----------------------|--------------------|---------||
|----------------------|--------------------|---------||


  Slowly Q=74
  Dm
  Gtr III
  E  E  E  E E  E  E  E   E  E  E  E E  E  E  E
|------13---------13-12-|------13---------13-15-|
|------15---------15-13-|------15---------15-17-|
|---14----14---14-------|---14----14---14-------|
|-0----------0----------|-0----------0----------|
|-----------------------|-----------------------|
|-----------------------|-----------------------|


  Bbmaj7
  E  E  E  E E  E  E  E   E  E  E  E E  E  E  E
|------10---------10----|------10---------10-----|
|---10-11-10---10-11-10-|---10-11-10---10-11-----|
|-----------------------|------------------------|
|-8----------8----------|-8----------8-------10--|
|-8----------8----------|-8----------8-----------|
|-----------------------|------------------------|


  Dm
  E  E  E  E E  E  E  E   E  E  E  E E  E  E  E
|------13---------13-12-|------13---------13-15-|
|------15---------15-13-|------15---------15-17-|
|---14----14---14-------|---14----14---14-------|
|-0----------0----------|-0----------0----------|
|-----------------------|-----------------------|
|-----------------------|-----------------------|


  H.=H                                     Q=60
  Bbmaj7
  E  E  E  E E  E  E  E   E  E  E  E  E  E  E  E
|------10---------10----|------10----10----12-----*|
|---10-11-10---10-11-10-|---10-11-10-11-10-13-10--*|
|-----------------------|-------------------------*|
|-8----------8----------|-8-----------8-----------*|
|-8----------8----------|-8-----------8----10-----*|
|-----------------------|-------------------------*|


Duration Legend
---------------
W - whole; H - half; Q - quarter; E - 8th; S - 16th; T - 32nd; X - 64th; a - acciaccatura
+ - note tied to previous; . - note dotted; .. - note double dotted
Uncapitalized letters represent notes that are staccato (1/2 duration)
Irregular groupings are notated above the duration line
Duration letters will always appear directly above the note/fret number it represents the
duration for.  Duration letters with no fret number below them represent rests.  Multi-
bar rests are notated in the form Wxn, where n is the number of bars to rest for.  Low
melody durations appear below the staff

Tablature Legend
----------------
 h   - hammer-on
 p   - pull-off
 b   - bend
 pb  - pre-bend
 r   - bend release (if no number after the r, then release immediately)
 /\  - slide into or out of (from/to "nowhere")
 s   - legato slide
 S   - shift slide
  - natural harmonic
[n]  - artificial harmonic
n(n) - tapped harmonic
 ~   - vibrato
 tr  - trill
 T   - tap
 TP  - trem. picking
 PM  - palm muting
\n/  - tremolo bar dip; n = amount to dip
 \n  - tremolo bar down
 n/  - tremolo bar up
/n\  - tremolo bar inverted dip
 =   - hold bend; also acts as connecting device for hammers/pulls
 <>  - volume swell (louder/softer)
 x   - on rhythm slash represents muted slash
 o   - on rhythm slash represents single note slash

Misc Legend
-----------
 |  - bar
||  - double bar
||o - repeat start
o|| - repeat end
*|  - double bar (ending)
 :  - bar (freetime)
 $  - Segno
 &  - Coda
Tempo markers -  = BPM(8/16=s8/s16), where s8 = swing 8ths, s16 = swing 16ths
Related for Start Something tab