Song name
# A B C D E F G H I J K L M N O P Q R S T U V W X Y Z

Lostprophets - We Are Godzilla You Are Japan tab

Artist: lostprophets

Song: We Are Godzilla, You Are Japan

Album: Start Something

Drop C (C G C F A D)

b = bend
... = palm mute


First Intro (guitar only):

|----------------------------------|
|----------------------------------|
|-----6b-----6b-----6b-------------|
|-4-4----4-5----5-7----5-22-2-2-2--|
|-4-4----4-5----5-7----5-22-2-2-2--|
|-4-4----4-5----5-7----5-22-2-2-2--|
  .                      .. . . .

|-----------------------------------|
|-----------------------------------|
|---6b-----6b-----6b----------------|
|-4----4-5----5-7----5-22-22-22-22--|
|-4----4-5----5-7----5-22-22-22-22--|
|-4----4-5----5-7----5-22-22-22-22--|
                       .. .. .. ..

Second Intro/Chorus:

|----------------------------------|
|----------------------------------|
|---6b------6b------6b-------------|
|-4----4-55----5-77----5-22-2-2-2--|
|-4----4-55----5-77----5-22-2-2-2--|
|-4----4-55----5-77----5-22-2-2-2--|
                         .. . . .

|----------------------------------|
|----------------------------------|
|---6b------6b------6b-------------|
|-4----4-55----5-77----5-22-2-2-2--|
|-4----4-55----5-77----5-22-2-2-2--|
|-4----4-55----5-77----5-22-2-2-2--|
                         .. . . .


|----------------------------------|
|----------------------------------|
|---6b------6b------6b-------------|
|-4----4-55----5-77----5-22-2-2-2--|
|-4----4-55----5-77----5-22-2-2-2--|
|-4----4-55----5-77----5-22-2-2-2--|
                         .. . . .


|--------------------------------------|
|--------------------------------------|
|---6b------6b------6b-----------------|
|-4----4-55----5-77----5-22-2-2-2--7-4-|
|-4----4-55----5-77----5-22-2-2-2--7-4-|
|-4----4-55----5-77----5-22-2-2-2--7-4-|
                         .. . . .


Verse:

|-4424-------77-77-22-22--|
|-4424-------77-77-22-22--|
|-4424-------77-77-22-22--|
|-4424-------77-77-22-22--|
|-4424-------77-77-22-22--|
|-4424-------77-77-22-22--|

Pre-chorus:

|---------------------------------|
|---------------------------------|
|---------------------------------|
|---------------------------------|
|---------------------------------|
|44444444555555557777777722222222-|

|-------------------------------------------|
|-------------------------------------------|
|-------------------------------------------|
|-------------------------------------------|
|-------------------------------------------|
|444444445555555577777777-10-10-10-10-------|

Interlude:

|----------|
|----------|
|----------|
|-22-2-2-2-|
|-22-2-2-2-|
|-22-2-2-2-|
  .. . . .

then 8X:

|--------------|
|---2----------|
|---2----------|
|-2---2-2-2-2--|
|-2---2-2-2-2--|
|-2---2-2-2-2--|
  .   . . . .

Final chorus:

|---------------------------------|
|---------------------------------|
|----6b-----6b-----6b-------------|
|--4----4-5----5-7----5-22-2-2-2--|
|--4----4-5----5-7----5-22-2-2-2--|
|--4----4-5----5-7----5-22-2-2-2--|
                        .. . . .

|-----------------------------------|
|-----------------------------------|
|---6b-----6b-----6b----------------|
|-4----4-5----5-7----5-22-22-22-22--|
|-4----4-5----5-7----5-22-22-22-22--|
|-4----4-5----5-7----5-22-22-22-22--|
                       .. .. .. ..


|-----------------------------------|
|---2-------2--------2--------------|
|---2-------2--------2--------------|
|-4----4-55----5-77-----5-22-2-2-2--|
|-4----4-55----5-77-----5-22-2-2-2--|
|-4----4-55----5-77-----5-22-2-2-2--|


|-----------------------------------|
|---2-------2--------2--------------|
|---2-------2--------2--------------|
|-4----4-55----5-77-----5-22-2-2-2--|
|-4----4-55----5-77-----5-22-2-2-2--|
|-4----4-55----5-77-----5-22-2-2-2--|

|----------------------------------|
|----------------------------------|
|---6b------6b------6b-------------|
|-4----4-55----5-77----5-22-2-2-2--|
|-4----4-55----5-77----5-22-2-2-2--|
|-4----4-55----5-77----5-22-2-2-2--|


|----------------------------------|
|----------------------------------|
|---6b------6b------6b-------------|
|-4----4-55----5-77----5-22-2-2-2--|
|-4----4-55----5-77----5-22-2-2-2--|
|-4----4-55----5-77----5-22-2-2-2--|


Outro is same as pre-chorus just increase the tempo


|---------------------------------|
|---------------------------------|
|---------------------------------|
|---------------------------------|
|---------------------------------|
|44444444555555557777777722222222-|

play that 3 times then this part last (but fast):

|-------------------------------------------|
|-------------------------------------------|
|-------------------------------------------|
|-------------------------------------------|
|-------------------------------------------|
|444444445555555577777777-10-10-10-10-------|
Tap to rate this tab
# A B C D E F G H I J K L M N O P Q R S T U V W X Y Z