Song name
# A B C D E F G H I J K L M N O P Q R S T U V W X Y Z

Lostprophets - We Still Kill The Old Way tab

----------------------------------------------------------------------------
			     WE STILL KILL THE OLD WAY - LostProphets
----------------------------------------------------------------------------
Tabbed by:P
Email:O


 /  slide up
 \  slide down
 h  hammer-on
 p  pull-off
 ~  let ring
 +  harmonic
 x  palm mute


Tuning: Drop D (D A D G B E)

intro (part one)
|------------------------------17-17-17-17-17-17-17-17-17-17----------------|
|---------------------------------------------------------------------------|
|---------------------------------------------------------------------------|
|---------------------------------------------------------------------------|
|-------0-0---0-0-------0---------------------------------------------------|
|---0-0-0-0-0-0-0-0-0-0-0---------------------------------------------------|
    x x     x     x x x

intro (part two)  same rhythm as part one
|---------------------------------------------------------------------------|
|---------------------------------------------------------------------------|
|---7/-9-9-9-9-9-9-9-9-9-9--7--9-9-9-9-9-9-9-9-9-9--------------------------|
|---------------------------------------------------------------------------|
|---5/-7-7-7-7-7-7-7-7-7-7--5/-7-7-7-7-7-7-7-7-7-7--------------------------|
|---0-----------------------0-----------------------------------------------|

intro (part three)
|---------------------------------------------------------------------------|
|---------------------------------------------------------------------------|
|---------------------------------------------------------------------------|
|---------------------------------------------------------------------------|
|--5-7-7-5-7-7-5-7-7-5-7-7-5-7-7-7-4-7-7-4-7-7-4-7-7-4-7-7-4-7-7-7----------|
|--5-7-7-5-7-7-5-7-7-5-7-7-5-7-7-7-4-7-7-4-7-7-4-7-7-4-7-7-4-7-7-7----------|

|---------------------------------------------------------------------------|
|---------------------------------------------------------------------------|
|---------------------------------------------------------------------------|
|---------------------------------------------------------------------------|
|--4-5-5-4-5-5-4-5-5-4-5-5-4-5-5-5-5-7-7-5-7-7-5-7-7-5-7-7-5-7-7-7----------|
|--4-5-5-4-5-5-4-5-5-4-5-5-4-5-5-5-5-7-7-5-7-7-5-7-7-5-7-7-5-7-7-7----------|

|---------------------------------------------------------------------------|
|---------------------------------------------------------------------------|
|------------------------------------------------9~-------------------------|
|---------------------------------------------------------------------------|
|---9\--3--5--7--0--2--3----0--2-----0--2--0~----7~-------------------------|
|-------------------------5-------3--------0~-------------------------------|

verse
|---------------------------------------------------------------------------|
|---------------------------------------------------------------------------|
|---------------------------------------------------------------------------|
|---------------------------------------------------------------------------|
|---------------------------------------------------------------------------|
|--5-7-7-5-7-7-5-7/---4-7-7-4-7-7-4-7/---3-5-5-3-5-5-3-5/--1-3-3-1-3-3-1-3/-|

pre chorus
|---------------------------------------------------------------------------|
|---------------------------------------------------------------------------|
|------9-----9-----9-----9-----9-----9-----9---9---9------------------------|
|---------------------------------------------------------------------------|
|---------------------------------------------------------------------------|
|--7-7---7-7---7-7---7-7---7-7---7-7---7-7---7---7--------------------------|
   x x   x x   x x   x x   x x   x x   x x   x   x

|---------------------------------------------------------------------------|
|---------------------------------------------------------------------------|
|---------------------------------------------------------------------------|
|---------------------------------------------------------------------------|
|---7-7-7-7-7-7-7-7-7-7-7-7-7-7-7-7-7---12-12-12-12-12-12-12-12-------------|
|---7-7-7-7-7-7-7-7-7-7-7-7-7-7-7-7-7---12-12-12-12-12-12-12-12-------------|
    x x x x x x x x x x x x x x x x x   x  x  x  x  x  x  x  x  x

|---------------------------------------------------------------------------|
|---------------------------------------------------------------------------|
|---------------------------------------------------------------------------|
|---------------------------------------------------------------------------|
|--12-12-12-12-12-12-12-12--10-10-10-10-10-10-10-10-10-10-10-10-10-10-10-10-|
|--12-12-12-12-12-12-12-12--10-10-10-10-10-10-10-10-10-10-10-10-10-10-10-10-|
   x  x  x  x  x  x  x  x   x  x  x  x  x  x  x  x  x  x  x  x  x  x  x  x  x

|---------------------------------------------------------------------------|
|---------------------------------------------------------------------------|
|---------------------------------------------------------------------------|
|---------------------------------------------------------------------------|
|--12-12-12-12-12-12-12-12-12-12-12-12-12-12-12-12--------------------------|
|--12-12-12-12-12-12-12-12-12-12-12-12-12-12-12-12--5-7-7-5-7-7-5-7-7-5-7\--|
   x  x  x  x  x  x  x  x  x  x  x  x  x  x  x  x

chorus
|---------------------------------------------------------------------------|
|---------------------------------------------------------------------------|
|---------------------------------------------------------------------------|
|---------------------------------------------------------------------------|
|---7~---9~---10~---0~---7~---9~---10~---0~---------------------------------|
|---7~---9~---10~---0~---7~---9~---10~---0~---------------------------------|

middle - clean plus effect- rhythm not exact but notes are good
|---------------------------------------------------------------------------|
|---12-----12-----12-----15-------15-------15------15-------15-------15-----|
|------9------9------9------12-------12-------12------14-------14-------14--|
|--------9------9--------------12-------12---------------14-------14--------|
|---------------------------------------------------------------------------|
|---------------------------------------------------------------------------|


|---------------------------------------------------------------------------|
|---------------------------------------------------------------------------|
|--14--14--14--12-12--------------------------------------------------------|
|---------------------14----------------------------------------------------|
|---------------------------------------------------------------------------|
|---------------------------------------------------------------------------|

middle - distorted
|---------------------------------------------------------------------------|
|--17-------17-------17-------17-----17-------17-------17-------17----------|
|-----14-------14-------14-------14-----14-------14-------14-------14-------|
|--------14-------14-------14--------------14-------14-------14-------------|
|---------------------------------------------------------------------------|
|---------------------------------------------------------------------------|

|---------------------------------------------------------------------------|
|---15-------15-------15-------15-----12-----12-----12-----12---------------|
|------12-------12-------12-------12-----9------9------9------9-------------|
|---------12-------12-------12--------------9-----9------9------------------|
|---------------------------------------------------------------------------|
|---------------------------------------------------------------------------|

|---------------------------------------------------------------------------|
|---------------------------------------------------------------------------|
|---------------------------------------------------------------------------|
|---------------------------------------------------------------------------|
|---------------------------------------------------------------------------|
|--5-5-5-5-5-5-5-5--4-4-4-4-4-4-4-4--2-2-2-2-2-2-2-2--4-4-4-4-4-4-4-4-------|

song order

intro/verse/pre chorus/chorus/intro part2/verse/pre chorus/chorus/
intro part2/intro part1/middle/chorus/intro part two

============================================================================
Tap to rate this tab
 
# A B C D E F G H I J K L M N O P Q R S T U V W X Y Z