Song name
# A B C D E F G H I J K L M N O P Q R S T U V W X Y Z

Lostprophets - Jaimore tab

Band: Lostprophets
Song: Jaimore
Album: Para Todas Las Putas Celosas (demo)
Transcribed by: Damien
Tuning: D A D G B E

Intro/Verse

1--7-7-7-7-7-8-5--|--7-7-7-8-8-8-8-10-10-------------------|
2-----------------|----------------------------------------|
3-----------------|----------------------------------------|
4-----------------|----------------------------------------|
5-----------------|----------------------------------------|
6-----------------|----------------------------------------|

Chorus

1------------------------------------------------------------|
2------------------------------------------------------------|
3------------------------------------------------------------|
4--2-2-2-2-3-3-3-0---2-2-2-2-3~------------------------------|
5--2-2-2-2-3-3-3-0---2-2-2-2-3~------------------------------|
6--2-2-2-2-3-3-3-0---2-2-2-2-3~------------------------------|
   * * * *           * * * *
Bridge

1-------------------------------------------------------------|
2-------------------------------------------------------------|
3-------------------------------------------------------------|
4--7--10-/-12-\\-10-0--5-0--3-5-/-7---------------------------|
5--5--8--/-10-\\-8--0--3-0--3-3-/-5---------------------------|
6------------------0----0--3----------------------------------|

Interlude

1----------------------------------------------------------|
2----------------------------------------------------------|
3----------------------------------------------------------|
4---------------------------------2-2-2--------------------|
5----------------------------------------------------------|
6--3-2-0-2--3-2-0-2--3-2-0-2--3-2--------------------------|

Repeat interlude when Ian starts singing, but palm mute all notes.

Chorus

Fade into then out of intro riff
Tap to rate this tab
# A B C D E F G H I J K L M N O P Q R S T U V W X Y Z