Song name
# A B C D E F G H I J K L M N O P Q R S T U V W X Y Z

Lostprophets - Last Train Home Acoustic tab

                          Lostprophets
                          Last Train Home Acoustic
                          Tabbed by:JOE854  (josephjamesw@hotmail.co.uk)

This is the version that they played live in australia,its pretty accurate but if theres 
mistakes then e-mail me.


Tuning (D A D G B E)


 Chorus

    Csus2
E|--3-----3-----3--3--3--3-----3--3--3-----3--3--3-|
B|--3-----3-----3--3--3--3-----3--3--3-----3--3--3-|
G|--5-----5-----5--5--5--5-----5--5--5-----5--5--5-|
D|--5-----5-----5--5--5--5-----5--5--5-----5--5--5-|
A|--3-----3-----3--3--3--3-----3--3--3-----3--3--3-|
D|--0-----0-----0--0--0--0-----0--0--0-----0--0--0-|

    Em7
E|--3-----3-----3--3--3--3-----3--3--3-----3--3--3-|
B|--3-----3-----3--3--3--3-----3--3--3-----3--3--3-|
G|--x-----x-----x--x--x--x-----x--x--x-----x--x--x-|
D|--2-----2-----2--2--2--2-----2--2--2-----2--2--2-|
A|--2-----2-----2--2--2--2-----2--2--2-----2--2--2-|
D|--2-----2-----2--2--2--2-----2--2--2-----2--2--2-|

    Dsus4                D
E|--3-----3-----3--3--3--2-----2--2--2-----2--2--2-|
B|--3-----3-----3--3--3--3-----3--3--3-----3--3--3-|
G|--2-----2-----2--2--2--2-----2--2--2-----2--2--2-|
D|--0-----0-----0--0--0--0-----0--0--0-----0--0--0-|
A|--0-----0-----0--0--0--0-----0--0--0-----0--0--0-|
D|--0-----0-----0--0--0--0-----0--0--0-----0--0--0-|

    Dsus4                D           Dsus2
E|--3-----3-----3--3--3--2-----2--2--0-----0--0--0-|
B|--3-----3-----3--3--3--3-----3--3--3-----3--3--3-|
G|--2-----2-----2--2--2--2-----2--2--2-----2--2--2-|
D|--0-----0-----0--0--0--0-----0--0--0-----0--0--0-|
A|--0-----0-----0--0--0--0-----0--0--0-----0--0--0-|
D|--0-----0-----0--0--0--0-----0--0--0-----0--0--0-|

    Csus2
E|--3-----3-----3--3--3--3-----3--3--3-----3--3--3-|
B|--3-----3-----3--3--3--3-----3--3--3-----3--3--3-|
G|--5-----5-----5--5--5--5-----5--5--5-----5--5--5-|
D|--5-----5-----5--5--5--5-----5--5--5-----5--5--5-|
A|--3-----3-----3--3--3--3-----3--3--3-----3--3--3-|
D|-------------------------------------------------|

    Em7
E|--3-----3-----3--3--3--3-----3--3--3-----3--3--3-|
B|--3-----3-----3--3--3--3-----3--3--3-----3--3--3-|
G|--x-----x-----x--x--x--x-----x--x--x-----x--x--x-|
D|--2-----2-----2--2--2--2-----2--2--2-----2--2--2-|
A|--2-----2-----2--2--2--2-----2--2--2-----2--2--2-|
D|--2-----2-----2--2--2--2-----2--2--2-----2--2--2-|

    Dsus4                D
E|--3-----3-----3--3--3--2-----2--2--2-----2--2--2-|
B|--3-----3-----3--3--3--3-----3--3--3-----3--3--3-|
G|--2-----2-----2--2--2--2-----2--2--2-----2--2--2-|
D|--0-----0-----0--0--0--0-----0--0--0-----0--0--0-|
A|--0-----0-----0--0--0--0-----0--0--0-----0--0--0-|
D|--0-----0-----0--0--0--0-----0--0--0-----0--0--0-|

    Dsus4                D           Dsus2
E|--3-----3-----3--3--3--2-----2--2--0-----0--0--0-|
B|--3-----3-----3--3--3--3-----3--3--3-----3--3--3-|
G|--2-----2-----2--2--2--2-----2--2--2-----2--2--2-|
D|--0-----0-----0--0--0--0-----0--0--0-----0--0--0-|
A|--0-----0-----0--0--0--0-----0--0--0-----0--0--0-|
D|--0-----0-----0--0--0--0-----0--0--0-----0--0--0-|


 Verse


E|-------------------------------------------------|
B|-------------------------------------------------|
G|-16----16----16-16-16-16----16-16-16----16-16-16-|
D|-17----17----17-17-17-17----17-17-17----17-17-17-|
A|-15----15----15-15-15-15----15-15-15----15-15-15-|
D|-------------------------------------------------|


E|-------------------------------------------------|
B|-------------------------------------------------|
G|-16----16----16-16-16-16----16-16-16----16-16-16-|
D|-17----17----17-17-17-17----17-17-17----17-17-17-|
A|--x-----x-----x--x--x--x-----x--x--x-----x--x--x-|
D|-14----14----14-14-14-14----14-14-14----14-14-14-|


E|-------------------------------------------------|
B|-------------------------------------------------|
G|-16----16----16-16-16-14----14-14-14----14-14-14-|
D|-17----17----17-17-17-17----17-17-17----17-17-17-|
A|-12----12----12-12-12-12----12-12-12----12-12-12-|
D|-12----12----12-12-12-12----12-12-12----12-12-12-|


E|-------------------------------------------------|
B|-------------------------------------------------|
G|-16----16----16-16-16-14----14-14-14----14-14-14-|
D|-17----17----17-17-17-17----17-17-17----17-17-17-|
A|-12----12----12-12-12-12----12-12-12----12-12-12-|
D|-12----12----12-12-12-12----12-12-12----12-12-12-|


E|-------------------------------------------------|
B|-------------------------------------------------|
G|-16----16----16-16-16-16----16-16-16----16-16-16-|
D|-17----17----17-17-17-17----17-17-17----17-17-17-|
A|-15----15----15-15-15-15----15-15-15----15-15-15-|
D|-------------------------------------------------|


E|-------------------------------------------------|
B|-------------------------------------------------|
G|-16----16----16-16-16-16----16-16-16----16-16-16-|
D|-17----17----17-17-17-17----17-17-17----17-17-17-|
A|--x-----x-----x--x--x--x-----x--x--x-----x--x--x-|
D|-14----14----14-14-14-14----14-14-14----14-14-14-|


E|-------------------------------------------------|
B|-------------------------------------------------|
G|-16----16----16-16-16-14----14-14-14----14-14-14-|
D|-17----17----17-17-17-17----17-17-17----17-17-17-|
A|-12----12----12-12-12-12----12-12-12----12-12-12-|
D|-12----12----12-12-12-12----12-12-12----12-12-12-|


E|-------------------------------------------------|
B|-------------------------------------------------|
G|-16----16----16-16-16-14----14-14-14----14-14-14-|
D|-17----17----17-17-17-17----17-17-17----17-17-17-|
A|-12----12----12-12-12-12----12-12-12----12-12-12-|
D|-12----12----12-12-12-12----12-12-12----12-12-12-|


E|-------------------------------------------------|
B|-------------------------------------------------|
G|-16----16----16-16-16-19----19-19-16----16-16-16-|
D|-17----17----17-17-17-17----17-17-17----17-17-17-|
A|-15----15----15-15-15-15----15-15-15----15-15-15-|
D|-------------------------------------------------|


E|-------------------------------------------------|
B|-------------------------------------------------|
G|-16----16----16-16-16-19----19-19-16----16-16-16-|
D|-17----17----17-17-17-17----17-17-17----17-17-17-|
A|--x-----x-----x--x--x--x-----x--x--x-----x--x--x-|
D|-14----14----14-14-14-14----14-14-14----14-14-14-|


E|-------------------------------------------------|
B|-------------------------------------------------|
G|-14----14----14-14-14-16----16-16-19----19-16-16-|
D|-17----17----17-17-17-17----17-17-17----17-17-17-|
A|--x-----x-----x--x--x--x-----x--x--x-----x--x--x-|
D|--0-----0-----0--0--0--0-----0--0--0-----0--0--0-|


E|-------------------------------------------------|
B|-------------------------------------------------|
G|-14----14----16-16-16-14----14-14-19----19-14-14-|
D|-17----17----17-17-17-17----17-17-17----17-17-17-|
A|--x-----x-----x--x--x--x-----x--x--x-----x--x--x-|
D|--0-----0-----0--0--0--0-----0--0--0-----0--0--0-|


E|-------------------------------------------------|
B|-------------------------------------------------|
G|-16----16----16-16-16-16----16-16-16----16-16-16-|
D|-17----17----17-17-17-17----17-17-17----17-17-17-|
A|-15----15----15-15-15-15----15-15-15----15-15-15-|
D|-------------------------------------------------|


E|-------------------------------------------------|
B|-------------------------------------------------|
G|-16----16----16-16-16-16----16-16-16----16-16-16-|
D|-17----17----17-17-17-17----17-17-17----17-17-17-|
A|--x-----x-----x--x--x--x-----x--x--x-----x--x--x-|
D|-14----14----14-14-14-14----14-14-14----14-14-14-|


E|-------------------------------------------------|
B|-------------------------------------------------|
G|-16----16----16-16-16-14----14-14-14----14-14-14-|
D|-17----17----17-17-17-17----17-17-17----17-17-17-|
A|-12----12----12-12-12-12----12-12-12----12-12-12-|
D|-12----12----12-12-12-12----12-12-12----12-12-12-|


E|-------------------------------------------------|
B|-------------------------------------------------|
G|-14----14----14-14-14-14-14-14-16-16-16-16-16-16-|
D|-17----17----17-17-17-17-17-17-17-17-17-17-17-17-|
A|-12----12----12-12-12-12-12-12-12-12-12-12-12-12-|
D|-12----12----12-12-12-12-12-12-12-12-12-12-12-12-|


 Pre-Chorus
    A5                                        B5
E|-------------------------------------------------|
B|-10----10-10----10-10-10----10-10-10----10-12-12-|
G|--9-----9--9-----9--9--9-----9--9--9-----9-11-11-|
D|--7-----7--7-----7--7--7-----7--7--7-----7--9--9-|
A|--7-----7--7-----7--7--7-----7--7--7-----7--9--9-|
D|--7-----7--7-----7--7--7-----7--7--7-----7--9--9-|

    C5
E|-------------------------------------------------|
B|-13----13-13----13-13-13----13-13-13----13-13-13-|
G|-12----12-12----12-12-12----12-12-12----12-12-12-|
D|-10----10-10----10-10-10----10-10-10----10-10-10-|
A|-10----10-10----10-10-10----10-10-10----10-10-10-|
D|-10----10-10----10-10-10----10-10-10----10-10-10-|

    G5
E|-------------------------------------------------|
B|--8-----8--8-----8--8--8-----8--8--8-----8--8--8-|
G|--7-----7--7-----7--7--7-----7--7--7-----7--7--7-|
D|--5-----5--5-----5--5--5-----5--5--5-----5--5--5-|
A|--5-----5--5-----5--5--5-----5--5--5-----5--5--5-|
D|--5-----5--5-----5--5--5-----5--5--5-----5--5--5-|

    D5
E|-------------------------------------------------|
B|--3-----3--3-----3--3--3-----3--3--3-----3--3--3-|
G|--2-----2--2-----2--2--2-----2--2--2-----2--2--2-|
D|--0-----0--0-----0--0--0-----0--0--0-----0--0--0-|
A|--0-----0--0-----0--0--0-----0--0--0-----0--0--0-|
D|--0-----0--0-----0--0--0-----0--0--0-----0--0--0-|

    A5                                        B5
E|-------------------------------------------------|
B|-10----10-10----10-10-10----10-10-10----10-12-12-|
G|--9-----9--9-----9--9--9-----9--9--9-----9-11-11-|
D|--7-----7--7-----7--7--7-----7--7--7-----7--9--9-|
A|--7-----7--7-----7--7--7-----7--7--7-----7--9--9-|
D|--7-----7--7-----7--7--7-----7--7--7-----7--9--9-|

    C5
E|-------------------------------------------------|
B|-13----13-13----13-13-13----13-13-13----13-13-13-|
G|-12----12-12----12-12-12----12-12-12----12-12-12-|
D|-10----10-10----10-10-10----10-10-10----10-10-10-|
A|-10----10-10----10-10-10----10-10-10----10-10-10-|
D|-10----10-10----10-10-10----10-10-10----10-10-10-|

    G5
E|-------------------------------------------------|
B|--8-----8--8-----8--8--8-----8--8--8-----8--8--8-|
G|--7-----7--7-----7--7--7-----7--7--7-----7--7--7-|
D|--5-----5--5-----5--5--5-----5--5--5-----5--5--5-|
A|--5-----5--5-----5--5--5-----5--5--5-----5--5--5-|
D|--5-----5--5-----5--5--5-----5--5--5-----5--5--5-|

    D5
E|-------------------------------------------------|
B|--3-----3--3-----3--3--3-----3--3--3-----3--3--3-|
G|--2-----2--2-----2--2--2-----2--2--2-----2--2--2-|
D|--0-----0--0-----0--0--0-----0--0--0-----0--0--0-|
A|--0-----0--0-----0--0--0-----0--0--0-----0--0--0-|
D|--0-----0--0-----0--0--0-----0--0--0-----0--0--0-|

 Outro
    Csus2
E|--3----------------------|
B|--3----------------------|
G|--5----------------------|
D|--5----------------------|
A|--3----------------------|
D|-------------------------|
Tap to rate this tab
# A B C D E F G H I J K L M N O P Q R S T U V W X Y Z