Song name
# A B C D E F G H I J K L M N O P Q R S T U V W X Y Z

Lostprophets - Cant Stop Gotta Date With Hate tab

-------------------------------------------------------------------------------
	  Can't Stop, Gotta Date With Hate - Lostprophets
-------------------------------------------------------------------------------

Tabbed by: The_Foo_Fighter

Email: philip_clough@hotmail.com (comments etc)

Tuning: Drop D

-------------------------------------------------------------------------

INTRO

e|--------------------------14---------------------------------------|
B|--15-14-15-17-15-14-15-17----17-15-17-15-14-15-14------------------|
G|-------------------------------------------------------------------|	Guitar 1
D|-------------------------------------------------------------------|
A|-------------------------------------------------------------------|
D|-------------------------------------------------------------------|

e|-------------------------------------------------------------------|
B|-------------------------------------------------------------------|
G|--------------------------2--2--2--2--2--2--2--2-------------------|	Guitar 2
D|--5--5--5--5--5--5--5--5--2--2--2--2--2--2--2--2-------------------|
A|--5--5--5--5--5--5--5--5--0--0--0--0--0--0--0--0-------------------|
D|--5--5--5--5--5--5--5--5-------------------------------------------|

e|--------------------------14---------------------------------------|
B|--15-14-15-17-15-14-15-17----17-15-17-15-14-15-14------------------|
G|-------------------------------------------------------------------|	Guitar 1
D|-------------------------------------------------------------------|
A|-------------------------------------------------------------------|
D|-------------------------------------------------------------------|

e|-------------------------------------------------------------------|
B|-------------------------------------------------------------------|
G|-------------------------------------------------------------------|	Guitar 2
D|--4--4--4--4--4--4--4--4--5--5--5--5--5--5--5--5-------------------|
A|--4--4--4--4--4--4--4--4--5--5--5--5--5--5--5--5-------------------|
D|--4--4--4--4--4--4--4--4--5--5--5--5--5--5--5--5-------------------|

-------------------------------------------------------------------------

VERSE

e|-------------------------------------------------------------------|
B|-------------------------------------------------------------------|
G|-------------------------------------------------------------------|  Guitar 1
D|--5-5-----------4-----------4-4-----------2------------------------|
A|--5-5---------2---2---------4-4---------0---0----------------------|
D|--5-5-----------------------4-4----------------6-7~----------------|

-------------------------------------------------------------------------

CHORUS

e|-------------------------------------------------------------------|
B|-------------------------------------------------------------------|
G|------------------22222222222222224444444444444444-----------------|  Guitar 1
D|--0000000000000000222222222222222244444444444444444444444444/77777-|
A|--0000000000000000000000000000000022222222222222224444444444/77777-|
D|--0000000000000000--------------------------------4444444444/77777-|

-------------------------------------------------------------------------

SOLO

e|----------------------17-----17--14-15-14--------------------------|
B|--15-----15-17-----17----------------------15-17-15----------------|
G|-----14--------14--------14----------------------------------------|  Guitar 1
D|-------------------------------------------------------------------|
A|-------------------------------------------------------------------|
D|-------------------------------------------------------------------|

e|-------------------------------------------------------------------|
B|-------------------------------------------------------------------|
G|--------------------------2--2--2--2--2--2--2--2-------------------|  Guitar 2
D|--5--5--5--5--5--5--5--5--2--2--2--2--2--2--2--2-------------------|
A|--5--5--5--5--5--5--5--5--0--0--0--0--0--0--0--0-------------------|
D|--5--5--5--5--5--5--5--5-------------------------------------------|

e|----------------------17-----17--14-15-14--------------------------|
B|--15-----15-17-----17---------------------15---17-15~--------------|
G|-----14--------14--------14----------------------------------------|  Guitar 1
D|-------------------------------------------------------------------|
A|-------------------------------------------------------------------|
D|-------------------------------------------------------------------|


e|-------------------------------------------------------------------|
B|-------------------------------------------------------------------|
G|-------------------------------------------------------------------|  Guitar 2
D|--4--4--4--4--4--4--4--4--5--5--5--5--5--5--5--5-------------------|
A|--4--4--4--4--4--4--4--4--5--5--5--5--5--5--5--5-------------------|
D|--4--4--4--4--4--4--4--4--5--5--5--5--5--5--5--5-------------------|

-------------------------------------------------------------------------

INTERLUDE

e|-------------------------------------------------------------------|
B|-------------------------------------------------------------------|
G|--------------------------2--2--2--2--2--2--2--2-------------------|  Guitar 1
D|--5--5--5--5--5--5--5--5--2--2--2--2--2--2--2--2-------------------|
A|--5--5--5--5--5--5--5--5--0--0--0--0--0--0--0--0-------------------|
D|--5--5--5--5--5--5--5--5-------------------------------------------|



e|-------------------------------------------------------------------|
B|-------------------------------------------------------------------|
G|-------------------------------------------------------------------|  Guitar 1
D|--4--4--4--4--4--4--4--4--5--5--5--5--5--5--5--5-------------------|
A|--4--4--4--4--4--4--4--4--5--5--5--5--5--5--5--5-------------------|
D|--4--4--4--4--4--4--4--4--5--5--5--5--5--5--5--5-------------------|

-------------------------------------------------------------------------

OUTRO

e|-------------------------------------------------------------------|
B|-------------------------------------------------------------------|
G|-------------------------------------------------------------------|  Guitar 1
D|--5~---------------------------------------------------------------|
A|--5~---------------------------------------------------------------|
D|--5~---------------------------------------------------------------|


ORDER :

INTRO 		X 2

VERSE		X 4

INTRO 		X 2

CHORUS 		X 2

INTRO 		X 2

VERSE 		X 4

INTRO 		X 2

CHORUS 		X 2

SOLO 		X 1

INTERLUDE 	X 2

CHORUS 		X 3

OUTRO 		X 1

Peace out \m/

| /  slide up
| \  slide down
| h  hammer-on
| p  pull-off
| ~  vibrato
| +  harmonic
| x  Mute note

===============================================================================
Tap to rate this tab
# A B C D E F G H I J K L M N O P Q R S T U V W X Y Z